Song name
# A B C D E F G H I J K L M N O P Q R S T U V W X Y Z

Sink To See - Forever Strong tab

/ : slide
b : bend up
r : bend down after playing the note

Solo:
E---------------------------------------------------|
a---------------------------------------------------|
d---------------------------------------------------|
g---------------------------------------------------|
b---------------------------------------------------|
e-10/12--14b-14-14-14r-12-10-12---------------------|

E---------------------------------------------------|
a---------------------------------------------------|
d---------------------------------------------------|
g---------------------------------------------------|
b---------------------------------------------------|
e-10-12-10/12--14b-14-14-14r-12-10-12---------------|

E--------------------------------------------------------------------|
a--------------------------------------------------------------------|
d-10-12-10------10-12-10-12------------------------------------------|
g----------10---------------10---12b----12b----12b----12b----12b-----|
b------------------------------------10-----10-----10-----10---------|
e--------------------------------------------------------------------|

E---------------------------------------------------|
a----------------------------------10-12----12------|
d-10-12-10-12-12--10-12-10-12-12---------10---------|
g---------------------------------------------------|
b---------------------------------------------------|
e---------------------------------------------------|

E---------------------------------------------------|
a---------------------------------------------------|
d-10-12----12---------------------------------------|
g-------10----12------------------------------------|
b--------------------12-----------------------------|
e-----------------12----12--------------------------|

www.sinktosee.com/
Tap to rate this tab
# A B C D E F G H I J K L M N O P Q R S T U V W X Y Z