Song name
# A B C D E F G H I J K L M N O P Q R S T U V W X Y Z

Sink To See - Shine On tab

Intro:
E-----------------------------------------|
a-----------------------------------------|
d-----------------------------------------|
g--2--------2--------0--------0-----------|
b----3---3----3---3----3---3----3---3-----|    x2
e------2--------2--------2--------2-------|

Play this intro at the starting, after the first chorus and after the 3rd verse
/ : slide
b : bend up
r : bend down after playing the note

Solo:
E---------------------------------------------------|
a---------------------------------------------------|
d---------------------------------------------------|
g---------------------------------------------------|
b---------------------------------------------------|
e-10/12--14b-14-14-14r-12-10-12---------------------|

E---------------------------------------------------|
a---------------------------------------------------|
d---------------------------------------------------|
g---------------------------------------------------|
b---------------------------------------------------|
e-10-12-10/12--14b-14-14-14r-12-10-12---------------|

E--------------------------------------------------------------------|
a--------------------------------------------------------------------|
d-10-12-10------10-12-10-12------------------------------------------|
g----------10---------------10---12b----12b----12b----12b----12b-----|
b------------------------------------10-----10-----10-----10---------|
e--------------------------------------------------------------------|

E---------------------------------------------------|
a----------------------------------10-12----12------|
d-10-12-10-12-12--10-12-10-12-12---------10---------|
g---------------------------------------------------|
b---------------------------------------------------|
e---------------------------------------------------|

E---------------------------------------------------|
a---------------------------------------------------|
d-10-12----12---------------------------------------|
g-------10----12------------------------------------|
b--------------------12-----------------------------|
e-----------------12----12--------------------------|

Note:Although this tab is the same as one for Forever Strong (by me of course), you can 
learn from either one and it's mainly for people who have only listened to Shine on.
Comments, questions, corrections etc. Email me at sidharthk16@yahoo.in
Please rate! :)
Tap to rate this tab
# A B C D E F G H I J K L M N O P Q R S T U V W X Y Z