Song name
# A B C D E F G H I J K L M N O P Q R S T U V W X Y Z

Sinking Ships - Ghost Story tab

www.myspace.com/sinkingships

SINKING SHIPS - GHOST STORY

    e|---------------------------------|
    B|---------------------------------|
GTR G|---------------------------------|
1+2 D|-4-4-4-4-4-4-4-4-4-4-4-4-4-4-4-4-| x2
    A|-4-4-4-4-4-4-4-4-4-4-4-4-4-4-4-4-|
    E|-2-2-2-2-2-2-2-2-2-2-2-2-2-2-2-2-|

    e|------------------------------------------------------------|
    B|------------------------------------------------------------|
GTR G|------10-11-10------10-11p10-------10-11-10--------10-11p10-|
 1  D|---11----------11---------------11----------11--------------| x2
    A|-9----------------9----------13-----------------13----------|
    E|------------------------------------------------------------|

    e|---------------------------------------------------|
    B|---------------------------------------------------|
GTR G|-10------------------------10----------------------|
 2  D|-11------------------------11----------------------|
    A|-9-------------------------13----------------------|
    E|---------------------------------------------------|

    e|----------- x2 ----------------|-------------------------------|
    B|-------------------------------|-------------------------------|
GTR G|-10-10----------11-11----------|-------------------------------|
1+2 D|-11-11-11111111-11-11-11111111-|-8-8-8-8-8-8-11-11-11-11-11-11-| x2
    A|-9--9--9-9-9-9--9--9--9-9-9-9--|-8-8-8-8-8-8-11-11-11-11-11-11-|
    E|-------------------------------|-6-6-6-6-6-6-9--9--9--9--9--9--|
             P M P M        P M P M

    e|------------------------------------------------------------|
    B|------------------------------------------------------------|
GTR G|------10-11-10------10-11p10-------10-11-10--------10-11p10-|
 1  D|---11----------11---------------11----------11--------------| x4
    A|-9----------------9----------13-----------------13----------|
    E|------------------------------------------------------------|

    e|-------------------------------------------------------|
    B|-------------------------------------------------------|
GTR G|-------------------------------------------------------|
 2  D|-4-4-4-4-4-4-4-4-4-4-4-4-4-8-8-8-8-8-8-6-6-6-8-8-8-6-6-| x4
    A|-4-4-4-4-4-4-4-4-4-4-4-4-4-8-8-8-8-8-8-6-6-6-8-8-8-6-6-|
    E|-2-2-2-2-2-2-2-2-2-2-2-2-2-6-6-6-6-6-6-4-4-4-6-6-6-4-4-|

-------------------------------------------------------

    e|----------------------|
    B|----------------------|
GTR G|----10-------10-------|
1+2 D|-11----11-------11----| 
    A|----------11-------11-|
    E|----------------------|

    e|----------------------------------------------------------|
    B|----------------------------------------------------------|
GTR G|----13-13-13-13-13-13-13-13-13-13-13-13-13-13-13-13-13-13-|
1+2 D|----11-11-11-11-11-11-10-10-10-10-10-10-10-10-10-10-10-10-| 
    A|-11-11-11-11-11-11-11-11-11-11-11-11-11-10-10-10-10-10-10-|
    E|----------------------------------------11-11-11-11-11-11-|

whole section x2

-----------------------------------------------------------------

    e|------------------------------------------------------------|
    B|------------------------------------------------------------|
GTR G|------10-11-10------10-11p10-------10-11-10--------10-11p10-|
 1  D|---11----------11---------------11----------11--------------| x2
    A|-9----------------9----------13-----------------13----------|
    E|------------------------------------------------------------|

    e|-------------------------------------------------------|
    B|-------------------------------------------------------|
GTR G|-------------------------------------------------------|
 2  D|-4-4-4-4-4-4-4-4-4-4-4-4-4-8-8-8-8-8-8-6-6-6-8-8-8-6-6-| x2
    A|-4-4-4-4-4-4-4-4-4-4-4-4-4-8-8-8-8-8-8-6-6-6-8-8-8-6-6-|
    E|-2-2-2-2-2-2-2-2-2-2-2-2-2-6-6-6-6-6-6-4-4-4-6-6-6-4-4-|
       P M P M P M P M P M P M P     P M P M  

    e|------------------------------------------------------------|
    B|------------------------------------------------------------|
GTR G|------10-11-10------10-11p10-------10-11-10--------10-11p10-|
 1  D|---11----------11---------------11----------11--------------| 
    A|-9----------------9----------13-----------------13----------|
    E|------------------------------------------------------------|

    e|-------------------------------------------------------|
    B|-------------------------------------------------------|
GTR G|-------------------------------------------------------|
 2  D|-4-4-4-4-4-4-4-4-4-4-4-4-4-8-8-8-8-8-8-6-6-6-8-8-8-6-6-| x2
    A|-4-4-4-4-4-4-4-4-4-4-4-4-4-8-8-8-8-8-8-6-6-6-8-8-8-6-6-|
    E|-2-2-2-2-2-2-2-2-2-2-2-2-2-6-6-6-6-6-6-4-4-4-6-6-6-4-4-|
       P M P M P M P M P M P M P     P M P M  

    e|------------------------------------------------------------|
    B|------------------------------------------------------------|
GTR G|------10-11-10------10-11p10-------10-11-10--------10-11p10-|
 1  D|---11----------11---------------11-----------11-------------| 
    A|-9----------------9----------13-----------------13----------|
    E|------------------------------------------------------------|

    e|-------------------------------------------------------|
    B|-------------------------------------------------------|
GTR G|-------------------------------------------------------|
 2  D|-4-4-4-4-4-4-4-4-4-4-4-4-4-8-8-8-8-8-8-6-6-6-8-8-8-6-6-| 
    A|-4-4-4-4-4-4-4-4-4-4-4-4-4-8-8-8-8-8-8-6-6-6-8-8-8-6-6-|
    E|-2-2-2-2-2-2-2-2-2-2-2-2-2-6-6-6-6-6-6-4-4-4-6-6-6-4-4-|
       P M P M P M P M P M P M P     P M P M  

----------------------------------------------------------

    e|----------------------|
    B|----------------------|
GTR G|----10-------10-------|
1+2 D|-11----11-------11----| 
    A|----------11-------11-|
    E|----------------------|

    e|----------------------|
    B|----------------------|
GTR G|-10-10-10-10-10-10-10-|
 2  D|-11-11-11-11-11-11-11-|
    A|----------------------|
    E|----------------------|


    e|-------------------------------------------------------|
    B|-------------------------------------------------------|
GTR G|-13-13-13-13-13-13-13-13-13-13-13-13-13-13-13-13-13-13-|
 1  D|-11-11-11-11-11-11-10-10-10-10-10-10-10-10-10-10-10-10-| 
    A|-11-11-11-11-11-11-11-11-11-11-11-11-10-10-10-10-10-10-|
    E|-------------------------------------11-11-11-11-11-11-|

repeat section x2
----------------------------------------------------------

    e|----------------------|
    B|----------------------|
GTR G|-10-10-10-10-10-10-10-|
 2  D|-11-11-11-11-11-11-11-|
    A|----------------------|
    E|----------------------|

    e|-------------------------------------------------------|
    B|-------------------------------------------------------|
GTR G|-13-13-13-13-13-13-13-13-13-13-13-13-13-13-13-13-13-13-|
 2  D|-11-11-11-11-11-11-10-10-10-10-10-10-10-10-10-10-10-10-|
    A|-------------------11-11-11-11-11-11-11-11-11-11-11-11-|
    E|-------------------------------------------------------|

---------------------------------------------------------------------------

    e|--------------------- x3 -----------------------------|
    B|------------------------------------------------------|
GTR G|-1010101010101010101313131313131313131111111111111111-|
1+2 D|-111111111111111111-----------------------------------| 
    A|-9-9-9-9-9-9-9-9-9-1111111111111111119-9-9-9-9-9-9-9--|
    E|------------------------------------------------------|

                                                                                       
    e|---------------------------------------|
    B|---------------------------------------|
GTR G|---------------------------------------|
1+2 D|-11\8-8-8-11\8-8-8-11\8-8-8-11--11--11-|
    A|-11\8-8-8-11\8-8-8-11\8-8-8-11--11--11-|
    E|-9-\6-6-6-9-\6-6-6-9-\6-6-6-9---9---9--|
                                                                                        
repeat whole section x3
----------------------------------------------------------------------------

    e|------------------------------------------------------|
    B|------------------------------------------------------|
GTR G|-1010101010101010101313131313131313131111111111111111-|
1+2 D|-111111111111111111-----------------------------------| 
    A|-9-9-9-9-9-9-9-9-9-1111111111111111119-9-9-9-9-9-9-9--|
    E|------------------------------------------------------|

    e|--------------------------------|
    B|--------------------------------|
GTR G|-10--------------10-11-11p10----|
 1  D|-11-----------11-------------11-| x4
    A|-9---------13-------------------|
    E|--------------------------------|

    e|--------------------------------|
    B|--------------------------------|
GTR G|-10--------10-------------------|
 2  D|-11--------11-----------6--8--6-| x4
    A|-9---------13-----------6--8--6-|
    E|------------------------4--6--4-|

    e|--------------------------------|
    B|--------------------------------|
GTR G|-10--------------10-11-11p10----|
 1  D|-11-----------11-------------11-| 
    A|-9---------13-------------------|
    E|--------------------------------|

    e|--------------------------------|
    B|--------------------------------|
GTR G|-10--------10-------------------|
 2  D|-11--------11-------------------| 
    A|-9---------13-------------------|
    E|--------------------------------|

    e|-------------------------------------------|
    B|-------------------------------------------|
GTR G|-10--------------10-11-11p10---------------|
 1  D|-11-----------11-------------11-(ring out)-| 
    A|-9---------13------------------------------|
    E|-------------------------------------------|

    e|-------------------------------------------|
    B|-------------------------------------------|
GTR G|-10--------10----------------10------------|
 2  D|-11--------11----------------11-(ring out)-| 
    A|-9---------13----------------9-------------|
    E|-----------------------------9-------------|

END
Tap to rate this tab
# A B C D E F G H I J K L M N O P Q R S T U V W X Y Z