Song name
# A B C D E F G H I J K L M N O P Q R S T U V W X Y Z

Siouxsie And The Banshees - Israel tab

-------------------------------------------------------------------------------
			     Israel - Siouxsie and the Banshees
-------------------------------------------------------------------------------
Tabbed by: sharkstabber
Email:tomsmizrahi@yahoo.com

Tuning:eadgbe
  Intro/Outro:
e|---------------------------------------------------------------------------|
B|12----------12----------12--------------12---------------------------------|
G|---------------------------------------------------------------------------|
D|---9-11--------9-11--------9-11----11-9-------11----11-9-------------------|
A|--------12----------12----------12---------12----12------------------------|
E|---------------------------------------------------------------------------|

e|---------------------------------------------------------------------------|
B|12----------12----------12--------------12---------------12---12-----------|
G|---------------------------------------------------------------------------|
D|---9-11--------9-11--------9-11----11-9-------11----11-9----9----9---------|
A|--------12----------12----------12---------12----12------------------------|
E|---------------------------------------------------------------------------|

  Verse:    
e|12----------9------------------------14------------------------------------|
B|---12---------9------------12-----15---------------------------------------|
G|------12--------9-------12-----14------------------------------------------|
D|---------14-------9--12----------------------------------------------------|
A|---------------------------------------------------------------------------|
E|---------------------------------------------------------------------------|
  Chorus:
e|---------------------------------------------------------------------------|
B|---------------------------------------------------------------------------|
G|---------------------------------------------------------------------------|
D|9-9-9-9-9-9-9-9--10-10-10-10-10-10-10-10-----------------------------------|
A|7-7-7-7-7-7-7-7--10-10-10-10-10-10-10-10-----------------------------------|
E|7-7-7-7-7-7-7-7--8--8--8--8--8--8--8--8------------------------------------|

e|---------------------------------------------------------------------------|
B|---------------------------------------------------------------------------|
G|---------------------------------------------------------------------------|
D|9-9-9-9-9-9-9-9--10-10-10-10-10-10-10-10-----------------------------------|
A|7-7-7-7-7-7-7-7--10-10-10-10-10-10-10-10-----------------------------------|
E|7-7-7-7-7-7-7-7--8--8--8--8--8--8--8--8------------------------------------|

e|---------------------------------------------------------------------------|
B|---------------------------------------------------------------------------|
G|---------------------------------------------------------------------------|
D|9-9-9-9-9-9-9-9--10-10-10-10-10-10-10-10-----------------------------------|
A|7-7-7-7-7-7-7-7--10-10-10-10-10-10-10-10-----------------------------------|
E|7-7-7-7-7-7-7-7--8--8--8--8--8--8--8--8------------------------------------|

e|---------------------------------------------------------------------------|
B|---------------------------------------------------------------------------|
G|---------------------------------------------------------------------------|
D|9--9--9--9--9--9--9--9---7-7-7-7-7-7-7-7-----------------------------------|
A|10-10-10-10-10-10-10-10--5-5-5-5-5-5-5-5-----------------------------------|
E|10-10-10-10-10-10-10-10--5-5-5-5-5-5-5-5-----------------------------------|


===============================================================================
Tap to rate this tab
 
# A B C D E F G H I J K L M N O P Q R S T U V W X Y Z