Guitaretab - guitar tabs
Song name
# A B C D E F G H I J K L M N O P Q R S T U V W X Y Z

Siouxsie And The Banshees - Arabian Knights tab

-------------------------------------------------------------------------------
			     ARABIAN KNIGHTS - Siouxie & The Banshees
-------------------------------------------------------------------------------
Tabbed by: Willow
Email: wil_low@hotmail.it

i don't know if this is completly correct, i hope it could be ok anyway...^_^


intro and verses:
e|---7-----------------------|
B|---8-----------------------|
G|--------------9------------|
D|---7-----------------------|
A|---------------------------|
E|---------------------------| play during the verses

verse1:
the jewel the prize
looking into your eyes....
....

chorus:

       Em                  G5                         A5
e|--------------------------------------------------------------------------------------------------|
B|----------------------------------------------------------10---------10--------10-----------------|
G|---------------------------------------------------------------8--9------8--9-------8-------------|
D|2 2 2 2 2 2 2 2 5 5 5 5 5 5 5 5 7 7 7 7 7 7 7 7---------------------------------------------------|
A|2 2 2 2 2 2 2 2 5 5 5 5 5 5 5 5 7 7 7 7 7 7 7 7---------------------------------------------------|
E|-------------------3 3 3 3 3 3 3 3 5 5 5 5 5 5 5 5---------------------------------|  repeat x 2--|

     myriad lights ----- they say i've been impressed
     arabian knights ---- at your primitive best
[ Tab from: http://www.guitaretab.com/s/siouxsie-and-the-banshees/17334.html ]
verse2:
     a tourist oasis - reflect in seedy sunshades...
      ...

after the 2nd verse play:

e|10 10 10 10 / 12 12 12 12----------------------------------------------------------------------------|
B|10 10 10 10 / 12 12 12 12 /10------10------10-----10--------10------10-------------------------------|
G|--------------------------------------8-9 ----8-9 ----8-9 -----8-9------8-9--------------------------|
D|-----------------------------------------------------------------------------------------------------|
A|-----------------------------------------------------------------------------------------------------|
E|---------------------------------------------------------------------------------------| repeat x 4--|
                                                         ah .... ..... ah ... .....  .. ah - ah - ah


verse 3:
     veiled behind screens
     kept as your baby machine....

play chorus


play verse riff till end:

e|---7-----------------------|
B|---8-----------------------|
G|--------------9------------|
D|---7-----------------------|
A|---------------------------|
E|---------------------------|

      i heard a rumor - what have you done to her
      i heard a rumor - what have you done to her
       i heard a rumor

| /  slide up
| \  slide down
| h  hammer-on
| p  pull-off
| ~  vibrato
| +  harmonic
| x  Mute note
====================================================================

===========
Related for Arabian Knights tab
×
Arabian Knights