Song name
# A B C D E F G H I J K L M N O P Q R S T U V W X Y Z

Siouxsie And The Banshees - Israel tab

Israel - 7 single (1980)

Intro (flanger/delay guitar)

E|-7---------7--------7-----------7------------|
B|---0---------0--------0-------0---0-------0~-|
G|-----6---------6--------6---6-------6---6----|
D|-------7~--------7~-------7-----------7------|
A|---------------------------------------------|
E|---------------------------------------------|

Verses

E|-12-----------9--------------------------14~-----------------------------------|
B|----12----------9-------------12~-----15---------------------------------------|
G|-------12---------9--------12------14------------------------------------------|
D|----------14~-------9~--12-----------------------------------------------------|
A|-------------------------------------------------------------------------------|
E|-------------------------------------------------------------------------------|
  
Chorus (overdrive guitar)

E|------------------------------------------|
B|-8-8-8-8-8-8-8-8--------------------------|
G|-9-9-9-9-9-9-9-9---9--9--9--9--9--9--9--9-|
D|-9-9-9-9-9-9-9-9--10-10-10-10-10-10-10-10-|
A|-7-7-7-7-7-7-7-7--10-10-10-10-10-10-10-10-|
E|-------------------8--8--8--8--8--8--8--8-|

E|-------------------------------------------------|
B|-12-12-12-12-12-12-12-12-------------------------|
G|-12-12-12-12-12-12-12-12-11-11-11-11-11-11-11-11-|
D|-12-12-12-12-12-12-12-12--X--X--X--X--X--X--X--X-|
A|-10-10-10-10-10-10-10-10-12-12-12-12-12-12-12-12-|
E|-------------------------10-10-10-10-10-10-10-10-|

PLEASE RATE!!!
Any corrections send me an e-mail: bizkornotem@hotmail.com
Tap to rate this tab
 
# A B C D E F G H I J K L M N O P Q R S T U V W X Y Z