Song name
# A B C D E F G H I J K L M N O P Q R S T U V W X Y Z

Siouxsie And The Banshees - Into The Light tab

*****************************************************************************
                  INTO THE LIGHT - Siouxsie and the Banshees
*****************************************************************************
Tabbed by: Daniel Guedes
E-mail: dguedes@gmail.com

As played in: http://www.youtube.com/watch?v=WzT5U_YzEy4


Intro

e|---X--4-----4---------------------------------|
B|---X--4-----4---------------------------------|
G|---X--4-----4---------------------------------|
D|---X--5-----5-----------7----------7-------7--|
A|---X--4-----4---------7----------7-------7----|
E|---X-----------9-9--9-----9-9--9-----9-9------|


e|-----------------------------------------X--4-----4--|
B|-----------------------------------------X--4-----4--|
G|-----------------------------------------X--4-----4--|
D|-----------7----------7--------7---------X--5-----5--|
A|---------7----------7--------7----4-4--4-X--4-----4--|
E|--5-5--5-----5-5--5-----5-5--------------X-----------|


Verse

*A
e|------------------------------------------------------------------|
B|------------------------------------------------------------------|
G|------------------------------------------------------------------|
D|-----------7----------7--------7-----------7----------7--------7--|
A|---------7----------7--------7-----------7----------7--------7----|
E|--5-5--5-----5-5--5-----5-5-------9-9--9-----9-9--9------9-9------|

*B
e|---------X--4-----------------4-----------------------------------|
B|---------X--4-----------------4-----------------------------------|
G|---------X--4-----------------4-----------------------------------|
D|---------X--5-----------------5------------7----------7--------7--|
A|---------X--4-----------------4----------7----------7--------7----|
E|--5-5--5-X------------------------9-9--9-----9-9--9------9-9------|

*C
e|---------X--4-----------------4-----------------------------------|
B|---------X--4-----------------4-----------------------------------|
G|---------X--4-----------------4-----------------------------------|
D|---------X--5-----------------5------------7----------7-----------|
A|---------X--4-----------------4----------7----------7----7h9-7\5--|
E|--5-5--5-X------------------------9-9--9-----9-9--9---------------|


Chorus

*A
e|-----------------------------------9-10-12-14---14-14--|
B|-------------------------------------------------------|
G|---11p9---9p7---7p6---6/7\6-4-2-2----------------------|
D|-0------0-----0-----0----------------------------------|
A|-------------------------------------------------------|
E|-------------------------------------------------------|

*B
e|---14p12---12p10---10p9---9/10\9-7-5-5---14p12---12p10---10p9---9/10\9-7-5-5--|
B|---------------------------------------0-------0-------0------0---------------|
G|-0-------0-------0------0-----------------------------------------------------|
D|------------------------------------------------------------------------------|
A|------------------------------------------------------------------------------|
E|------------------------------------------------------------------------------|


Post-chorus

*A
e|---------------------------------------------------------|
B|---------------------------------------------------------|
G|---11p9---9p7---7p6---6/7\6-4-2-2--/6/7/9/10/12-12-12-12-|
D|-0------0-----0-----0------------------------------------|
A|---------------------------------------------------------|
E|---------------------------------------------------------|

*B
e|------------------------------------------X--4------4----|
B|------------------------------------------X--4------4----|
G|------------------------------------------X--4------4----|
D|---11p9---9p7---7p6---6/7\6-4-2-2---------X--5------5----|
A|-0------0-----0-----0--------------4-4--4-X--4------4----|
E|---------------------------------------------------------|


Ending chorus

e|---19/17---17/15---15/14---14/15\14-12-10-10--|
B|---19/17---17/15---15/14---14/15\14-12-10-10--|
G|-0-------0-------0-------0--------------------|--> probably not
D|----------------------------------------------|
A|----------------------------------------------|
E|----------------------------------------------|


Chords at the end

e|--5---4--|
B|--0---4--|
G|--6---4--|
D|--7---5--|
A|--0---4--|
E|---------|


Note: Most of this probably isn't 100% accurate, but the only person who really knew 
here to tell us anymore.. :(


Song Structure:

Intro 1x
Verse *A 3x
Verse *B 1X
Verse *C 1x
Chorus *A 2x
Chorus *B 2x
Post-chorus *A 2x
verse *A 4x
Verse *B 1x
Verse *C 1x
Chorus *A 2x
Chorus *B 2x
Post-chorus *A 2x
Post Chorus *B 1x
Verse *A 3x
Verse *B 1x
Verse *C 1x
Chorus *A 2x
Chorus *B 2x
Chorus *C 10x
Chords 4x - end short on second.

Good luck. And please, corrections are very welcome!
Tap to rate this tab
 
# A B C D E F G H I J K L M N O P Q R S T U V W X Y Z