Song name
# A B C D E F G H I J K L M N O P Q R S T U V W X Y Z

Siouxsie And The Banshees - Israel tab

****************************************************************************

                     Siouxsie and the Banshees - Israel

****************************************************************************

Tabbed by: Daniel Guedes
Email: dguedes@gmail.com

As played on http://www.youtube.com/watch?v=NJxTw-h-GPs


Based on the live versions played by John McGeoch, more than than the album
version. The latter contains 2 guitars, the live is a mix of them both.
      
      () harmonics
      [] "optional" or notes with some comment


Intro

I
   B   A B   A B     A B   A  
e|-7-----7-----7-----7------|
B|--0-----0-----0---0-0---0-|
G|---6-----6-----6-6---6-6--|
D|----7-----7-----7-----7---|
A|--------------------------|
E|--------------------------|

II
e|-7----7----7-----7-----7-7--|
B|--0----0----0---0-0---0-0-0-|
G|---6----6----6-6---6-6------|
D|----7----7----7-----7-------|
A|----------------------------|
E|----------------------------|


Verse
I
   Em        C#     G          D
e|-12--------9-------------------------|
B|---12-------9----------(12)-----(7)--|
G|-----12------9------(12)------(7)----|
D|-------12-----9--(12)-------(7)------|
A|-------------------------------------|
E|-------------------------------------|

II
   Em        C#     G          D
e|-12--------9---------------------------------|
B|---12-------9----------(12)-----(7)----------|
G|-----12------9------(12)------(7)----7-7-7/9-|
D|-------12-----9--(12)-------(7)------7-7-7/9-|
A|-------------------------------------5-5-5/7-|
E|---------------------------------------------|


Chorus

I
   Em               C
e|---------7-------------------8-----------|
B|---------8-------------------8-----------|
G|-9-9-9-9---9-9-9--9--9--9--9---9--9--9---|
D|-9-9-9-9---9-9-9--10-10-10-10--10-10-10--|
A|-7-7-7-7---7-7-7--10-10-10-10--10-10-10--|
E|-0-0-0-0---0-0-0--8--8--8--8---8--8--8---|

II
   G
e|-------------10-------------------------------14-------------|
B|-------------12------------------------------[11]------------|
G|-12-12-12-12----12-12-12---11---11---11---11-------11---11---|
D|-12-12-12-12----12-12-12--[12]-[12]-[12]-[12]-----[12]-[12]--|
A|-10-10-10-10----10-10-10---12---12---12---12-------12---12---|
E|---------------------------10---10---10---10-------10---10---|


Solo  :D
played with a stereo short delay

2x
e|------0h7p0-----9p0------7-|
B|-0h7p0-----0h9p0---0-10p0--|
G|---------------------------|
D|---------------------------|
A|---------------------------|
E|---------------------------|

e|------0h7p0-----10p0-----7-|
B|-0h8p0-----0h8p0----0-8p0--|
G|---------------------------|
D|---------------------------|
A|---------------------------|
E|---------------------------|

e|------0h7p0-----7p0------[0-> first time only]-|
B|-0h7p0-----0h7p0---0-7p0-----------------------|
G|-----------------------------------------------|
D|-----------------------------------------------|
A|-----------------------------------------------|
E|-----------------------------------------------|



Song Structure

Intro I 1x
Intro II 1x
Verse I 1x
Verse II 3x
Verse I 1x
Chorus I 3x
Chorus II 1x
Verse II 4x
Solo + Verse I 2x
Verse I 2x
Intro I 3x
Intro II 1x
Verse II 2x
Chorus I 3x
Chorus II 1x
Chorus I 1x
Chorus II 1x
Chorus I 1x
Chorus II 1x
Intro I 4x

=)
Tap to rate this tab
# A B C D E F G H I J K L M N O P Q R S T U V W X Y Z