Song name
# A B C D E F G H I J K L M N O P Q R S T U V W X Y Z

Siouxsie And The Banshees - Happy House chords

Highlighted       Show chord diagrams
E|-0-2-0-2-0-2-3-0-3-0-3-0-3-2-3-2-3-2-2-0-2-0-2-0-|
B|-------------------------------------------------|
G|-------------------------------------------------|    
D|-------------------------------------------------|   x2
A|-------------------------3-----------2-----------|
E|-0-----------3-----------------------------------|

E     G     C     B7
Ooooh Ooooh Ooooh Oooh-Ooh 
E       G                     C                 B7
This is the happy house-we're happy here in the happy house oh it's such
E   G   C   B7
Fun Fun Fun Whoa-Oh
      E       G           C                  B7
We've come to play in the happy house 
    E       G          C            B7                  
and waste a day in the happy house,     it never
E      G            C            B7
rains, never rains
      E       G             C                B7
We've come to scream in the happy house
      E    G            C            B7
We're in a dream in the happy house     We're all quite
E    G    C    B7
Sane Sane Sane Whoa
E           G                 C          B7
This is the happy house-we're happy here Whoa-Oh

   E           G           C           B7
E|-0-2-0-2-0-2-3-0-3-0-3-0-3-2-3-2-3-2-2-0-2-0-2-0-|
B|-------------------------------------------------|
G|-------------------------------------------------|    
D|-------------------------------------------------|   x2
A|-------------------------3-----------2-----------|
E|-0-----------3-----------------------------------|

        E                    G              C                      B7
There's room for you if you say "I do", but don't say no or you'll have to go
      E                      G                 C                    B7
we've done no wrong with our blinkers on, It's safe and calm if you sing along 
E          G     C     B7
sing along sing along  Whoa-Oh           
E       G                     C                 B7
This is the happy house-we're happy here in the happy house 
      E                    G                           C      B7
To forget ourselves-and pretend all's well there is no hell.  Oh-0Oh Whoa
E  G  C   B7
Oh Oh Oh
E     G     C     B7
Ooooh Ooooh Ooooh Oooh-Ooh 
E        G        C        B7
Oooh-Ooh Oooh-Ooh Oooh-Ooh Oooh-Ooh
E        G        C        B7
Oooh-Ooh Oooh-Ooh Oooh-Ooh Oooh-Ooh
    E                      G        C        B7
Im looking  through your window            ooooh  ooh
    E                      G        C        B7
Im looking  through your window            ooooh  ooh



Thanks to mymislead_clone for getting me started on the intro for this.
Tap to rate this tab
 
# A B C D E F G H I J K L M N O P Q R S T U V W X Y Z