Siouxsie And The Banshees - Mirage chords

Highlighted       Show chord diagrams
------------------------------------
MIRAGE by SIOUXSIE AND THE BANSHEES
------------------------------------

This song is based on post-punk powerchord..



--------
Begining
--------

2 posibility:   C, Dsus2, F#7  or C, G7M, B7


       C   Dsus2   F#7   G7M   B7
e|-----x---0-------2-----x-----7-------------------------------------------|
B|-----1---3-------2-----3-----7-------------------------------------------|
G|-----0---2-------3-----0-----8-------------------------------------------|
D|-----2---0-------2-----4-----7-------------------------------------------|
A|-----3---x-------4-----5-----9-------------------------------------------|
E|-----x---x-------2-----x-----7-------------------------------------------|


----------------
powerchord using
----------------

G:             355433
A:             577655
B7:            797877
Cm:            8'10'10'888
B7:            797877
G6:            779787 et 77978'10
C:             8'10'10'988
Dm:            10'12'12'10'10'10
B:             799877

----------
Being Riff
----------

Asus4:         5777xx
A:             5776xx
D:             x5777x
F:             x8'10'10'10'x

----------
At the end
----------

C              8'10'10'988
Csus4          8'10'10'10'88

B              799877
Bsus4          799977


-------------------------------------------------------------
-------------------------------------------------------------

Cm         Dm             B7
I'm just a vision on your TV screen

Cm             Dm              B7
Just something conjured from a dream


Cm              Dm            B7
Seen thro' your x-ray eyes, A see-thro' scene


Cm              Dm           B7
The image is no images, it's not what it seems.



G6                C
My limbs are like palm trees

G6      C  Dm    B G6 G6
Swaying in no breeze

G6           C
My body's an oasis

G6       C           Dm    B G6 G6    
To drink from as you please

C
I'm not seeing what I'm meant to believe in
 
B                             Asus4  A   D           F 
Your non excuse for human being.        being...



Cm       Dm                  B7
It's not plain to see, that I'm playing with me

Cm             Dm          B7   
A photo-fit of loose ends, framed in 3-D
         
Cm              Dm          B7                           
Seen thro' your x-ray eyes, A see-thro' scene

Cm              Dm           B7
The image is no images, it's not what it seems. 



G6                C
My limbs are like palm trees

G6      C  Dm    B G6 G6
Swaying in no breeze

G6           C
My body's an oasis

G6       C           Dm    B G6 G6    
To drink from as you please

C
I'm not seeing what I'm meant to believe in

B                             Asus4  A   D           F   
Your non excuse for human being.        being...

(x2)


At the end of the song:

B                             C/Csus4       B/Bsus4 
Your non excuse for human being.        being...

C/Csus4             B/Bsus4  
I'm not seeing what I'm meant to believe in

C/Csus4             B/Bsus4 
The image is no images It's not what it seems

C/Csus4             B/Bsus4 
I'm not seeing what I'm meant to believe in




-------------------------------------------------------------
-------------------------------------------------------------

R.I.P Peter Christopherson, peace.

-------------------------------------------------------------
-------------------------------------------------------------

This tabs is made by Roy Mystify aka Roy Mystify feat. Oh Curl

ROY MYSTIFY: http://www.myspace.com/roysebastien
Tap to rate this tab
 
# A B C D E F G H I J K L M N O P Q R S T U V W X Y Z