Song name
# A B C D E F G H I J K L M N O P Q R S T U V W X Y Z

Siouxsie And The Banshees - The Passenger tab

Help us improve GuitareTab! Take a short survey!
The Passenger
Siouxsie And The Banshees

The chords for Siouxsie's version differs from the original by Iggy Pop.

    __4 strums on the first note of the INTRO only.
   |
   Dm        Bb       F           C
|--5-5-5-5---6-6--6---8--8---8----8--8---8---|
|--6-6-6-6---6-6--6---10-10--10---8--8---8---|
|--7-7-7-7---7-7--7---10-10--10---7--7---7---|
|--7-7-7-7---8-8--8---10-10--10---10-10--10--|
|--5-5-5-5---8-8--8---8--8---8----10-10--10--|
|------------6-6--6---------------8--8---8---|

  Dm       Bb       F           A
--5-5--5---6-6--6---8--8---8----5-5--5--|
--6-6--6---6-6--6---10-10--10---5-5--5--|
--7-7--7---7-7--7---10-10--10---6-6--6--|
--7-7--7---8-8--8---10-10--10---7-7--7--|
--5-5--5---8-8--8---8--8---8----7-7--7--|
-----------6-6--6---------------5-5--5--|

   It keeps this progression the whole song.
Related for The Passenger tab