Song name
# A B C D E F G H I J K L M N O P Q R S T U V W X Y Z

Siouxsie And The Banshees - Melt drum

Melt!
Siouxsie and the Banshees


C  = crash ("x" and "X" mean different cymbals, you choose)
HH = hi-hat (f = foot)
S  = snare (d = double hit, o = single hit)
B  = bass



  Intro
HH|ffffffffffff|ffffffffffff|ffffffffffff|ffffffffffff|
S |--dd----dd--|--dd----dd--|--dd----dd--|--dd----dd--|
B |o-----o-----|o-----o-----|o-----o-----|o-----o-----|
  |1--2--3--4--|1--2--3--4--|1--2--3--4--|1--2--3--4--|

  Verse
HH|ffffffffffff|ffffffffffff|ffffffffffff|ffffffffffff|
S |--dd----dd--|--dd----dd--|--dd----dd--|--dd----dd--|
B |o-----o-----|o-----o-----|o-----o-----|o-----o-----|
  |1--2--3--4--|1--2--3--4--|1--2--3--4--|1--2--3--4--|

C |X-----------|------------|------------|X-----------|------------|
HH|ffffffffffff|ffffffffffff|ffffffffffff|ffffffffffff|ffffffffffff|
S |--dd----dd--|--dd----dd--|--dd----dd--|------------|---o-----o--|
B |o-----o-----|o-----o-----|o-----o-----|o--o--o--o--|o-----o-----|
  |1--2--3--4--|1--2--3--4--|1--2--3--4--|1--2--3--4--|1--2--3--4--|

HH|ffffffffffff|ffffffffffff|ffffffffffff|ffffffffffff|
S |--dd----dd--|--dd----dd--|--dd----dd--|--dd----ddoo|
B |o-----o-----|o-----o-----|o-----o-----|o-----o-----|
  |1--2--3--4--|1--2--3--4--|1--2--3--4--|1--2--3--4--|

  Chorus (0:52)
C |X-----------|------------|------------|
HH|ffffffffffff|ffffffffffff|ffffffffffff|
S |--dd----dd--|--dd----dd--|--dd----dd--|
B |o-----o-----|o-----o-----|o-----o-----|
  |1--2--3--4--|1--2--3--4--|1--2--3--4--|

C |X-----------|X-----------|X-----------|
HH|ffffffffffff|ffffffffffff|ffffffffffff|
S |--dd----dd--|--dd----dd--|--dd----dd--|
B |o-----o-----|o-----o-----|o-----o-----|
  |1--2--3--4--|1--2--3--4--|1--2--3--4--|

  Verse (1:10)
HH|ffffffffffff|ffffffffffff|ffffffffffff|ffffffffffff|
S |--dd----dd--|--dd----dd--|--dd----dd--|--dd----dd--|
B |o-----o-----|o-----o-----|o-----o-----|o-----o-----|
  |1--2--3--4--|1--2--3--4--|1--2--3--4--|1--2--3--4--|

C |X-----------|------------|X-----------|------------|X-----------|
HH|ffffffffffff|ffffffffffff|ffffffffffff|ffffffffffff|ffffffffffff|
S |--dd----dd--|--dd----dd--|--dd----dd--|--dd----ddoo|--dd----dd--|
B |o-----o-----|o-----o-----|o-----o-----|o-----o-----|o-----o-----|
  |1--2--3--4--|1--2--3--4--|1--2--3--4--|1--2--3--4--|1--2--3--4--|

  Chorus
C |X-----------|------------|X-----------|
HH|ffffffffffff|ffffffffffff|ffffffffffff|
S |--dd----dd--|--dd----dd--|--dd----dd--|
B |o-----o-----|o-----o-----|o-----o-----|
  |1--2--3--4--|1--2--3--4--|1--2--3--4--|

C |X-----------|------------|------------|
HH|ffffffffffff|ffffffffffff|ffffffffffff|
S |--dd----dd--|------------|------------|
B |o-----o-----|o-----o-----|o-----o-----|
  |1--2--3--4--|1--2--3--4--|1--2--3--4--|

  Verse (1:55)
C |X-----------|------------|------------|------------|
HH|ffffffffffff|ffffffffffff|ffffffffffff|ffffffffffff|
S |--dd----dd-o|--dd----dd--|--dd----dd--|--dd----dd--|
B |o--o-oo--o--|o--o-oo--o--|o--o--o--o--|o--o--o--o--|
  |1--2--3--4--|1--2--3--4--|1--2--3--4--|1--2--3--4--|

C |X-----x-----|X-----x-----|X-----x-----|X-----x-----|
HH|ffffffffffff|ffffffffffff|ffffffffffff|ffffffffffff|
S |--dd----dd--|--dd----dd--|--dd----dd--|--dd----dd--|
B |o-----o-----|o-----o-----|o-----o-----|o-----o-----|
  |1--2--3--4--|1--2--3--4--|1--2--3--4--|1--2--3--4--|

C |X-----x-----|X--x--x--x--|X-----------|------------|
HH|ffffffffffff|ffffffffffff|ffffffffffff|ffffffffffff|
S |--dd----dd--|------------|--dd----dd--|--dd----dd--|
B |o-----o-----|o--o--o--o--|o-----o-----|o-----o-----|
  |1--2--3--4--|1--2--3--4--|1--2--3--4--|1--2--3--4--|

C |------------|------------|------------|X-----------|
HH|ffffffffffff|ffffffffffff|ffffffffffff|ffffffffffff|
S |--dd----dd--|--dd----dd--|--dd----ddoo|--dd----dd--|
B |o-----o-----|o-----o-----|o-----o-----|o-----o-----|
  |1--2--3--4--|1--2--3--4--|1--2--3--4--|1--2--3--4--|

C |------------|X-----------|------------|X-----------|
HH|ffffffffffff|ffffffffffff|ffffffffffff|ffffffffffff|
S |--dd----dd--|--dd----dd--|--dd----ddoo|--dd----dd--|
B |o-----o-----|o-----o-----|o-----o-----|o-----o-----|
  |1--2--3--4--|1--2--3--4--|1--2--3--4--|1--2--3--4--|

  Outro (2:56)
C |X-----------|X-----x-----|x-----x-----|X-----x-----|
HH|ffffffffffff|ffffffffffff|ffffffffffff|ffffffffffff|
S |--dd----dd--|--dd----dd--|--dd----dd--|--dd----dd--|
B |o-----o-----|o-----o-----|o-----o-----|o-----o-----|
  |1--2--3--4--|1--2--3--4--|1--2--3--4--|1--2--3--4--|

C |X-----------|x-----x-----|x-----------|x-----x-----|
HH|ffffffffffff|ffffffffffff|ffffffffffff|ffffffffffff|
S |--dd----ddoo|--dd----dd--|--dd----dd--|--dd----dd--|
B |o-----o-----|o-----o-----|o--o--o--o--|o-----o-----|
  |1--2--3--4--|1--2--3--4--|1--2--3--4--|1--2--3--4--|

C |X-----x-----|x-----x-----|x-----x-----|x-----x-----|
HH|ffffffffffff|ffffffffffff|ffffffffffff|ffffffffffff|
S |--dd----dd--|--dd----ddoo|--dd----ddoo|--dd----ddoo|
B |o-----o-----|o-----o-----|o-----o-----|o-----o-----|
  |1--2--3--4--|1--2--3--4--|1--2--3--4--|1--2--3--4--|

C |X-----x-----|x-----x-----|x-----x|
HH|ffffffffffff|ffffffffffff|fffffff|
S |--dd----dd--|--dd----dd--|--dd---|
B |o-----o-----|o-----o-----|o-----o|
  |1--2--3--4--|1--2--3--4--|1--2--3|
Tap to rate this tab
# A B C D E F G H I J K L M N O P Q R S T U V W X Y Z