Song name
# A B C D E F G H I J K L M N O P Q R S T U V W X Y Z

Siouxsie And The Banshees - Sin In My Heart tab

Artist: Siouxsie and the Banshees
Song: Sin in My Heart

This is Steven Severin's bass intro just before Siouxsie's guitar kicks in:

-------------|
-2-----------|
---2---------|
-----0-------|

(play 4x)


Siouxsie plays a simple guitar part that leads the song. John McGeoch plays the lead 
over Siouxsie's guitar.


These are Siouxsie's chords:

 G5                       G/B             Am  E5        F5

-15----15-----15----15----15-15-15-15-15--17---12-12-12--13-13-13-13-13-13-13-|
-15----15-----15----15----15-15-15-15-15--17---12-12-12--13-13-13-13-13-13-13-|
------------------------------------------------------------------------------|
------------------------------------------------------------------------------|
------------------------------------------------------------------------------|
------------------------------------------------------------------------------|

This is John McGeoch's part:

-3-------------------------7---------------8---0---------1--------------------|
-3-------------------------8---------------10--0---------1--------------------|
------------------------------------------------------------------------------|
------------------------------------------------------------------------------|
------------------------------------------------------------------------------|
------------------------------------------------------------------------------|

Towards the end of the song, McGeoch plays this part over and over on top of the main 
as the song swells:

---3---3--|
-----3----|
-0--------|
----------|
----------|
----------|
Tap to rate this tab
# A B C D E F G H I J K L M N O P Q R S T U V W X Y Z