Song name
# A B C D E F G H I J K L M N O P Q R S T U V W X Y Z

Siouxsie And The Banshees - Metal Postcard Mittageisen tab

-------------------------------------------------------------------------------
			     Metal Postcard - Siouxsie and the Banshees
-------------------------------------------------------------------------------
Tabbed by: Chordmonkey

Tuning: standard


Hey, this is Metal Postcard (Mittageisen) from Siouxsie Sioux's Scream album, from 1978. 
easy to play, but it sounds so great

Verse/riff
   ....    ....   ....    ....
e|------------------------------------------|
B|------------------------------------------|
G|------------------------------------------|
D|------10------9------10------9------------|
A|------10------9------10------9------------|
E|--8-8-----8-8----8-8-----8-8--------------|

 Chorus
e|------------------------------------------|
B|------------------------------------------|
G|-12-121212-12/8-888-8---------------------|
D|-12-121212-12/8-888-8---------------------|
A|-10-101010-10/6-666-6---------------------|
E|------------------------------------------|

 End on
e|------------|
B|------------|
G|------------|
D|---10-10----|
A|---10-10----|
E|---8--8-----|
Tap to rate this tab
# A B C D E F G H I J K L M N O P Q R S T U V W X Y Z