Song name
# A B C D E F G H I J K L M N O P Q R S T U V W X Y Z

Sir Mix-a-lot - Jump On It tab

Sir Mix-a-lot with Jump On It.
In 1996, Sir Mix-A-Lot played off of the lyrics to 
Sugarhill Gang's "Apache" in his hit version of "Jump on It".


This is what i found out! its really simple.


E|---------------------------------------------------------------------|
A|---------------------------------------------------------------------|
D|---------------------------------------------------------------------|
G|-----------9-------11-------9---7---9--------------------------------|
B|----9---------9------------------------------------------------------|
E|---------------------------------------------------------------------|



E|---------------------------------------------------------------------|
A|---------------------------------------------------------------------|
D|---------------------------------------------------------------------|
G|-----------9-------11-------9---7---9--------------------------------|
B|----9---------9------------------------------------------------------|
E|---------------------------------------------------------------------|


   (this is the higher one!)
E|---------------------------------------------------------------------|
A|---------------------------------------------------------------------|
D|---------------------------------------------------------------------|
G|---------------------------------------------------------------------|
B|------------9------11------9---7---9---------------------------------|
E|----9----------9-----------------------------------------------------|



E|---------------------------------------------------------------------|
A|---------------------------------------------------------------------|
D|---------------------------------------------------------------------|
G|-----------9-------11-------9---7---9--------------------------------|
B|----9---------9------------------------------------------------------|
E|---------------------------------------------------------------------|
Tap to rate this tab
# A B C D E F G H I J K L M N O P Q R S T U V W X Y Z