Song name
# A B C D E F G H I J K L M N O P Q R S T U V W X Y Z

Sir Sly - Ghost chords

Highlighted       Show chord diagrams
-----------------------------------------------------------------------------
                               Ghost- Sir Sly
-------------------------------------------------------------------------------
Tabbed by:Excalibur
E-mail:

Tuning: Standard.

The strumming pattern I created for this was a little funky. So just comment if you have 
any questions and I'll try to put up a video for how I do this later.

The tabbed out part is the intro. I use this through basically any part  I'm not singing 
or the second through last repeats of the chorus. Through the verse and first chorus I 
just use C, Em and D chords.

NOTICE: There was no name given on the Ghost chords I modeled this after, but if 
whomever made out the chords first would like credit, here is the link to his/her tab, which is 
very accurate.

     C  (strum top only) G  (open for one upward strum)
                                           Em         Em
e|-----------0---0-----------------0-------------------------------------------|
B|---1-------1---1-----------------0---------3---------------------------------|
G|-----------0---0-----0--0---0----0---------------2---------------------------|
D|---2-----------------0--0---0----0------2--2---------2-----------------------|
A|---3-----------------2--2---2----0------2--2---------2-----------------------|
E|---x-----------------3--3---3----0-------------------------------------------|

     C  (strum top only) G  (open for one upward strum)
                                           Em
e|-----------0---0-----------------0-------------------3-2---------------------|
B|---1-------1---1-----------------0---------3---------0-0---------------------|
G|-----------0---0-----0--0---0----0-------------------------------------------|
D|---2-----------------0--0---0----0------2--2---------------------------------|
A|---3-----------------2--2---2----0------2--2---------------------------------|
E|---x-----------------3--3---3----0-------------------------------------------|

     C  (strum top only) G  (open for one upward strum)    (strum C for 1
                                           Em         Em     measure)
e|-----------0---0-----------------0---------------------------------------------|
B|---1-------1---1-----------------0---------3--------------1--1--1--------------|
G|-----------0---0-----0--0---0----0---------------2-----------------------------|
D|---2-----------------0--0---0----0------2--2---------2----2--2--2--------------|
A|---3-----------------2--2---2----0------2--2---------2----3--3--3--------------|
E|---x-----------------3--3---3----0------------------------x--x--x--------------|



                       (This is the C chord into the verse)
e|---3---2---0------0-----------------------------------------------------------|
B|---0---0---0------3----1------------------------------------------------------|
G|------------------------------------------------------------------------------|
D|-----------------------2------------------------------------------------------|
A|-----------------------3------------------------------------------------------|
E|-----------------------x------------------------------------------------------|

C                               Em
  Go ahead and stand up straight
Em                         D
  Straight against the wall
C                    Em
  Why did I go for ya
Em              D
   Pick you up when you fall
C              Em      D
   Was I too drunk to say what I said to you
C              Em           D
   Was I too blind to go and see straight through you


*Chorus 1*

C
Ghost
Em          D     C
   You're a ghost
   You're a ghost
   You're a ghost
    D(hold)
   You're a ghost

*Intro tab*

C
You flew out on a plane
Em            D
Came crashing into the ocean
C
And then you haunted me
Em           D
Don't have a clue what's the motion
C         Em     D
So every now and then it feels so soothing
C            Em               D
When you float on a bit and move right though me

*Chorus 2 (use intro tab if you want. chords are fine too)


Ghost.                                      You're a ghost.

     C                  G        open    Em (guitar notes align with voice)
e|-----------0---0-----------------0-------------------------------------------|
B|---1-------1---1-----------------0---------3---------------------------------|
G|-----------0---0-----0--0---0----0---------------2---------------------------|
D|---2-----------------0--0---0----0------2--2---------2-----------------------|
A|---3-----------------2--2---2----0------2--2---------2-----------------------|
E|---x-----------------3--3---3----0-------------------------------------------|

                                           YOu're a ghost.

e|-----------0---0-----------------0-------------------3-2---------------------|
B|---1-------1---1-----------------0---------3---------0-0---------------------|
G|-----------0---0-----0--0---0----0-------------------------------------------|
D|---2-----------------0--0---0----0------2--2---------------------------------|
A|---3-----------------2--2---2----0------2--2---------------------------------|
E|---x-----------------3--3---3----0-------------------------------------------|

Ghost.                                      You're a ghost.

     C                  G        open    Em (guitar notes align with voice)
e|-----------0---0-----------------0-------------------------------------------|
B|---1-------1---1-----------------0---------3---------------------------------|
G|-----------0---0-----0--0---0----0---------------2---------------------------|
D|---2-----------------0--0---0----0------2--2---------2-----------------------|
A|---3-----------------2--2---2----0------2--2---------2-----------------------|
E|---x-----------------3--3---3----0-------------------------------------------|

                    You're a ghost.
strum C one measure
                   D
e|-----------------2-----------------------------------------------------------|
B|----1------------3-----------------------------------------------------------|
G|-----------------2-----------------------------------------------------------|
D|----2------------------------------------------------------------------------|
A|----3------------------------------------------------------------------------|
E|-----------------------------------------------------------------------------|



C C C   Em Em Em   Bm BmBm
 Yeah
C
One, two, three, four
C
Get up save face
Em
Find your way back to the grave
Bm             C
Or then go find your way back home

(from here, I use the intro tab but it's up to you- whatever sounds best.)

C
Get up save face
Em
Find your way back to the grave
Bm       C
You'll never find your way back home
C
You're a ghost

C
Get up save face
Em        C
Find your way back to the grave (you're a ghost)
Bm           C
Or then go find your way back home (you're a ghost)


*Chorus*

C (or Am)
Ghost
Em          D     C
   You're a ghost
   You're a ghost
   You're a ghost
   You're a ghost


************************************



| /   slide up
| \   slide down
| H   hammer-on
| p   pull-off
| ~   vibrato
| +   harmonic
| x   Mute note
| B   Bend
| pb  Pre-bend
| br  Bend release
| pbr Pre-bend release
| brb Bend release bend

************************************
Tap to rate this tab
# A B C D E F G H I J K L M N O P Q R S T U V W X Y Z