Song name
# A B C D E F G H I J K L M N O P Q R S T U V W X Y Z

Sirenia - Lithium And A Lover tab

Standard Tuning
x(above note)= Palm Mute
d(above note)= Down Stroke
u(above note)= Up Stroke
p(between notes)= Pull Off
h(between notes)= Hammer On

(Intro)                                             (End Intro)
E-------------------------------------------------------------|
B-------------------------------------------------------------|
G-----------------------2----------------4-4---4---2---2------|
D-4-4---4----4-4---4----2-4---2-2---2----4-4---4---2---2------|
A-4-4---4----4-4---4----0-4---2-2---2----2-2---2---0---0------|
E-2-2---2----2-2---2------2---0-0---0-------------------------| X2

             
|-------------------------------------------------------------|
|-------------------------------------------------------------|
|-------------------------------------------------------------|
|-4-4---4-----------------------------------------------------|
|-4-4---4-----------------------------------------------------|
|-2-2---2---Pick Slide->>>------------------------------------|

(Chorus)                                           (End Chrous)
|-------------------------------------------------------------|
|-------------------------------------------------------------|
|--------------------------2----------------------4-4--4--2--2|
|-4-4---4---------4-4---4--2-6\4--2-2---2---------4-4--4--2--0|
|-4-4-x-4-x-x-x-x-4-4-x-4--0-6\4--2-2-x-2-x-x-x-x-2-2--2--0--0|
|-2-2-2-2-2-2-2-2-2-2-2-2----4\2--0-0-0-0-0-0-0-0-------------| X4

(Verse 1) "When all my demons set their sails..." (End Verse 1)
|-------------------------------------------------------------|
|-------------------------------------------------------------|
|--------2-----------------------------2----------------------|
|-4------2------2------4--------4------2------2------4--------|
|-4------0------2------4--------4------0------2------4--------|
|-2-------------0------2--------2-------------0------2--------| (let ring)


(Verse 2)(play slower than it appears)            (End Verse 2)
|-------------------------------------------------------------|
|----------------xxxxxxxxxxxxxxxx-----------------------------|
|xxxxxxxxxxxxxxxx4444444444444444xxxxxxxxxxxxxxxxxxxxxxxx-----|
|44444444444444444444444444444444444444444444444422222222-----|
|44444444444444442222222222222222444444444444444422222222-----|
|2222222222222222----------------222222222222222200000000-----|

|------------------------|
|------------------------|
|------------2-----2-----|
|2-2--2--2---0-----2---6-|
|2-2--2--2---0-----0---6-|
|0-0--0--0-------------4-|

*Chorus*
*Verse 1*

|----------|
|----------|
|-xxxxxxxx-|
|-44444444-|
|-44444444-|
|-22222222-|
*Verse 2*
|----------|
|----------|
|----------|
|2-2--2--2-|
|2-2--2--2-|
|0-0--0--0-|


|-------------------|
|-------------------|
|------------2------|
|-4-------2--0------|
|-4-------2--0------|
|-2-------0---------|


(bridge)
  d u d d  d u  u d  d d  d u d d  d u  u d   d               
|---------------------------------------------------------|
|---------------------------------------------------------|
|---------------------------------------------------------|
|-4-4-4-4--4-4--4-4--4-4--4-4-4-4--4-4--4-4---2-----------|
|-4-4-4-4--4-4--4-4--4-4--4-4-4-4--4-4--4-4---2-----------|
|-2-2-2-2--2-2--2-2--2-2--2-2-2-2--2-2--2-2---0-----------|

  d u d d  d u  u d  d d  d u d d  d u  u d   d               
|---------------------------------------------------------|
|---------------------------------------------------------|
|-2-2-2-2--2-2--2-2--2-2--2-2-2-2--2-2--2-2---------------|
|-2-2-2-2--2-2--2-2--2-2--2-2-2-2--2-2--2-2---2-----------|
|-0-0-0-0--0-0--0-0--0-0--0-0-0-0--0-0--0-0---2-----------|
|---------------------------------------------0-----------|

  d u d d  d u  u d  d d  d u d d  d u  u d   d               
|---------------------------------------------------------|
|---------------------------------------------------------|
|---------------------------------------------------------|
|-4-4-4-4--4-4--4-4--4-4--4-4-4-4--4-4--4-4---2-----------|
|-4-4-4-4--4-4--4-4--4-4--4-4-4-4--4-4--4-4---2-----------|
|-2-2-2-2--2-2--2-2--2-2--2-2-2-2--2-2--2-2---0-----------|

  d u d d  d u  u d  d d  d u d d  d u  u d   d(End Bridge)
|---------------------------------------------------------|
|---------------------------------------------------------|
|-4-4-4-4--4-4--4-4--4-4--7-7-7-7--7-6--6-6---------------|
|-4-4-4-4--4-4--4-4--4-4--7-7-7-7--7-6--6-6---2-----------|
|-2-2-2-2--2-2--2-2--2-2--5-5-5-5--5-4--4-4---2-----------|
|---------------------------------------------0-----------| X2

(Verse 3)
|-------------------------------|
|-------------------------------|
|------2--------4-2-------------|
|-4-4--2-4--4-4-4-2-4-2-4-2-----|
|-4-4--0-4--4-4-2-0-4-2-4-2-----|
|-2-2----2--2-2-----2-0-2-0-----| X3


|--------------------------------------|
|--------------------------------------|
|-4--4---4-4------4-2--2--2--2---------|
|-4--4---4-4------4-2--2--2--2---------|
|-2--2---2-2------2-0--0--0--0---------|
|--------------------------------------|


(Outro)
|-----------------------------|
|-----------------------------|
|-4------2-------------2------|
|-4------0------2------2------|
|-2------0------0------0------|
|---------------0-------------|

|---------------------------------|
|---------------------------------|
|-4------2------------------------|
|-4------0------2-----------------|
|-2------0------0--x-x-x-x-x-x-x-x|
|---------------0--0-0-2-2-3-3-5-5| X4 
(then just does this and more stuff like this and like Verse 1)

(the solo thing that goes over it) (It also kind of goes over verse 1 or something like that)
|------------------------------------------------------|
|-0-7p0-3p0-0h3-3p0-7p0----0h3-5p0-2-2-3p2--2--0-0-0-0-|
|-----------------------7p0----------------------------|
|------------------------------------------------------|
|------------------------------------------------------|
|------------------------------------------------------|

|------------------------------------------------------|
|-0-7p0-3p0-0h3-3p0-7p0----0h3-5p0----10----12-----14--|
|-----------------------7p0----------------------------|
|------------------------------------------------------|
|------------------------------------------------------|
|------------------------------------------------------|
(slowly 14th fret progresses down to 10, 9, 7, 5, then back up to 14 and back down etc)




So that's it, I'm not too sure about the last soloish part but other wise it all seems pretty accurate.
Tap to rate this tab
 
# A B C D E F G H I J K L M N O P Q R S T U V W X Y Z