Song name
# A B C D E F G H I J K L M N O P Q R S T U V W X Y Z

Sirens Sister - Womb Dreams From The Ehter tab

Artist: Siren's Sister
Title: Womb Dreams From The Ether
Album: Echoes From The Ocean Floor
Tab: stringping
Tuning: EADGBe


The rhythm is not given, whats shown are the notes to play.


Intro
e|------------------------------------------------------|
B|-10---------------------------------------------------|
G|-x----------------------------------------------------|
D|-7----------------------------------------------------|
A|------------------------------------------------------|
E|------------------------------------------------------|
Strum


Intro Riff
e|------------------------------------------------------|
B|------------------------------------------------------|
G|-9---9s11-11-9-7-6---9---9s11-11-9-7-6--7--6----------|
D|------------------------------------------------------|
A|------------------------------------------------------|
E|------------------------------------------------------|


Verse
e|------------------------------------------------------|
B|-10-10------------------------------------------------|
G|------------------------------------------------------|
D|------7-----------------------------------------------|
A|------------------------------------------------------|
E|------------------------------------------------------|
PM      ^

Pre-Chorus
e|------------------------------------------------------|
B|-9--12-15--9--12-15--9--12-15--17---------------------|
G|-x--x--x---x--x--x---x--x--x---x---7-7-7--------------|
D|-6--9--12--6--9--12--6--9--12--14--7-7-7--------------|
A|-----------------------------------5-5-5--------------|
E|------------------------------------------------------|


Chorus
e|-----------------------------------------------------------0--|
B|-----------------------------------------------------------0--|
G|----7-----------7--11-9-----7-----------7-----9--7---4-4---6--|
D|-7--7--4--2--7--7--11-9--7--7--4--2--7--7--4--9--7---4-4---7--|
A|-7--5--4--2--7--5--9--7--7--5--4--2--7--5--4--7--5---2-2---7--|
E|-5-----2--0--5-----------5-----2--0--5-----2-------------4-5--|


Breakdown Bridge
e|-5----3-----------------------------------------------|
B|-5----3-----------------------------------------------|
G|-6----4-----------------------------------------------|
D|-7----5-----------------------------------------------|
A|-7----5-----------------------------------------------|
E|-5----3-----------------------------------------------|


Build up Bridge
e|------------------------------------------------------|
B|------------------------------------------------------|
G|------------------------------------------------------|
D|-7----10-12-------------------------------------------|
A|-7----10-12-------------------------------------------|
E|-5----8--10-------------------------------------------|


Last Chorus
e|---------------------------------------------------------------5--|
B|---------------------------------------------------------------5--|
G|----7-----------7--11-9-----7-----------7-----9--7---9---4-4---6--|
D|-7--7--4--2--7--7--11-9--7--7--4--2--7--7--4--9--7---9---4-4---7--|
A|-7--5--4--2--7--5--9--7--7--5--4--2--7--5--4--7--5---7---2-2---7--|
E|-5-----2--0--5-----------5-----2--0--5-----2-----------------4-5--|


Have fun with it!
Tap to rate this tab
# A B C D E F G H I J K L M N O P Q R S T U V W X Y Z