Song name
# A B C D E F G H I J K L M N O P Q R S T U V W X Y Z

Sister Hazel - Shame tab

-------------------------------------------------------------------------------
			     SONG NAME - Band Name
-------------------------------------------------------------------------------
Tabbed by: Eric
Email: etj007@aol.com

I actually had a little(very little)help from Ryan (the lead guitarist) on this one, 
doesn't ensure its accuracy but at least you'll know its not a blind tab.

Tuning:Standard,  CAPO ON THE 4th fret.  (They put it on the 3rd fret when played live now)

e|----------0h2-2--2--x------------------------------------------------------|
B|-2--2--x--3---3--3--x--3--3--x--2--2--2------------------------------------|
G|-2--2--x--0h2-2--2--x--2--2--x--2--2--2------------------------------------|
D|-2--2--x--0---0--0-----0--0--x--2--2--2------------------------------------|
A|-0--0--x---------------x--x-----0--0--0------------------------------------|
E|-----------------------2--2------------------------------------------------|

This is the basic beat throughout the Intro and verse.  I'll update it with the chorus later.

| /  slide up
| \  slide down
| h  hammer-on
| p  pull-off
| ~  vibrato
| +  harmonic
| x  Mute note
===============================================================================
Tap to rate this tab
# A B C D E F G H I J K L M N O P Q R S T U V W X Y Z