Sister Hazel - Concede tab

-----------------------------------------------------------------------------
			     Concede - Sister Hazel
-----------------------------------------------------------------------------
Tabbed by: Rachel Bennett
Email: Rach2121@mac.com

Tuning: Standard


Intro:
  1 + 2 + 3 + 4 +   1 + 2 + 3 + 4 +   1 + 2 + 3 + 4 +   1 + 2 + 3 + 4 +
  Bm                G                 D   Dsus2   D     A Asus2     A
e|2---2-2---2-2-2---3---3-3---3-3-3---2---0-0---0-2-----0-0---0---0-0----------|
B|3---3-3---3-3-3---3---3-3---3-3-3---3---3-3---3-3-----2-0---0---0-2----------|
G|4---4-4---4-4-4---0---0-0---0-0-0---2---2-2---2-2-----2-2---2---2-2----------|
D|4---4-4---4-4-4---0---0-0---0-0-0---0---0-0---0-0-----2-2---2---2-2----------|
A|2---2-2---2-2-2---2---2-2---2-2-2---x---x-x---x-x-----0-0---0---0-0----------|
E|2---2-2---2-2-2---3---3-3---3-3-3---x---x-x---x-x-----x-x---x---x-x----------|
|

  1 + 2 + 3 + 4 +   1 + 2 + 3 + 4 +   1 + 2 + 3 + 4 +   1 + 2 + 3 + 4 +
  Bm                G                 D   Dsus2         A Asus2     A
e|2---2-2---2-2-2---3---3-3---3-3-3---2---0-0---0-2-----0-0---0---0-0----------|
B|3---3-3---3-3-3---3---3-3---3-3-3---3---3-3---3-3-----2-0---0---0-2----------|
G|4---4-4---4-4-4---0---0-0---0-0-0---2---2-2---2-2-----2-2---2---2-2----------|
D|4---4-4---4-4-4---0---0-0---0-0-0---0---0-0---0-0-----2-2---2---2-2----------|
A|2---2-2---2-2-2---2---2-2---2-2-2---x---x-x---x-x-----0-0---0---0-0----------|
E|2---2-2---2-2-2---3---3-3---3-3-3---x---x-x---x-x-----x-x---x---x-x----------|
|

Chorus:
  1 + 2 + 3 + 4 +   1 + 2 + 3 + 4 +   1 + 2 + 3 + 4 +   1 + 2 + 3 + 4 +
  Bm                G                 D   Dsus2   D     A Asus2     A
e|2---2-2---2-2-2---3---3-3---3-3-3---2---0-0---0-2-----0-0---0---0-0----------|
B|3---3-3---3-3-3---3---3-3---3-3-3---3---3-3---3-3-----2-0---0---0-2----------|
G|4---4-4---4-4-4---0---0-0---0-0-0---2---2-2---2-2-----2-2---2---2-2----------|
D|4---4-4---4-4-4---0---0-0---0-0-0---0---0-0---0-0-----2-2---2---2-2----------|
A|2---2-2---2-2-2---2---2-2---2-2-2---x---x-x---x-x-----0-0---0---0-0----------|
E|2---2-2---2-2-2---3---3-3---3-3-3---x---x-x---x-x-----x-x---x---x-x----------|
|
  Concede and believe me, I won't give up I won't give out on you

  1 + 2 + 3 + 4 +   1 + 2 + 3 + 4 +   1 + 2 + 3 + 4 +   1 + 2 + 3 + 4 +
  Bm                G                 D   Dsus2   D     A Asus2     A
e|2---2-2---2-2-2---3---3-3---3-3-3---2---0-0---0-2-----0-0---0---0-0----------|
B|3---3-3---3-3-3---3---3-3---3-3-3---3---3-3---3-3-----2-0---0---0-2----------|
G|4---4-4---4-4-4---0---0-0---0-0-0---2---2-2---2-2-----2-2---2---2-2----------|
D|4---4-4---4-4-4---0---0-0---0-0-0---0---0-0---0-0-----2-2---2---2-2----------|
A|2---2-2---2-2-2---2---2-2---2-2-2---x---x-x---x-x-----0-0---0---0-0----------|
E|2---2-2---2-2-2---3---3-3---3-3-3---x---x-x---x-x-----x-x---x---x-x----------|
|
  Concede and believe me, I won't give up I won't give out on

  1 + 2 + 3 + 4 +   1 + 2 + 3 + 4 +   1 + 2 + 3 + 4 +   1 + 2 + 3 + 4 +
  Bm                G                 D   Dsus2   D     A Asus2     A
e|2---2-2---2-2-2---3---3-3---3-3-3---2---0-0---0-2-----0-0---0---0-0----------|
B|3---3-3---3-3-3---3---3-3---3-3-3---3---3-3---3-3-----2-0---0---0-2----------|
G|4---4-4---4-4-4---0---0-0---0-0-0---2---2-2---2-2-----2-2---2---2-2----------|
D|4---4-4---4-4-4---0---0-0---0-0-0---0---0-0---0-0-----2-2---2---2-2----------|
A|2---2-2---2-2-2---2---2-2---2-2-2---x---x-x---x-x-----0-0---0---0-0----------|
E|2---2-2---2-2-2---3---3-3---3-3-3---x---x-x---x-x-----x-x---x---x-x----------|
|
  you...                              Oh no no no la la la la la

  1 + 2 + 3 + 4 +   1 + 2 + 3 + 4 +   1 + 2 + 3 + 4 +   1 + 2 + 3 + 4 +
  Bm                G                 D   Dsus2   D     A
e|2---2-2---2-2-2---3---3-3---3-3-3---2---0-0---0-2-----0----------------------|
B|3---3-3---3-3-3---3---3-3---3-3-3---3---3-3---3-3-----2----------------------|
G|4---4-4---4-4-4---0---0-0---0-0-0---2---2-2---2-2-----2----------------------|
D|4---4-4---4-4-4---0---0-0---0-0-0---0---0-0---0-0-----2----------------------|
A|2---2-2---2-2-2---2---2-2---2-2-2---x---x-x---x-x-----0----------------------|
E|2---2-2---2-2-2---3---3-3---3-3-3---x---x-x---x-x-----x----------------------|
|
  You....                             Oh no

Cool Guitar transition
  1+2+3+4+   1 + 2 + 3 + 4 +   1+2+3+4+   1  +     2     + 3 +     4
  Bm         Dm    Dsus2 Csus2 Bm         Dm Dsus2 Csus2 Dm  Dsus2 Csus2
e|2----------5-----5-----3-----2----------5--5-----3-----5---5-----3---------|
B|3----------6-----5-----3-----3----------6--5-----3-----6---5-----3---------|
G|4----------7-----7-----5-----4----------7--7-----5-----7---7-----5---------|
D|4----------7-----7-----5-----4----------7--7-----5-----7---7-----5---------|
A|2----------5-----5-----3-----2----------5--5-----3-----5---5-----3---------|
E|2----------5-----5-----3-----2----------5--5-----3-----5---5-----3---------|

Verse 1:
  1 + 2 + 3 + 4 +   1 + 2 + 3 + 4 +   1 + 2 + 3 + 4 +   1 + 2 + 3 + 4 +
  D                 C                 G                 D     A
e|2---2-2---2-2-2---0---0-0---0-0-0---3---3-3---3-3-3---2---2-0---0-0-0--------|
B|3---3-3---3-3-3---1---1-1---1-1-1---3---3-3---3-3-3---3---3-2---2-2-2--------|
G|2---2-2---2-2-2---0---0-0---0-0-0---0---0-0---0-0-0---2---2-2---2-2-2--------|
D|0---0-0---0-0-0---2---2-2---2-2-2---0---0-0---0-0-0---0---0-2---2-2-2--------|
A|x---x-x---x-x-x---3---3-3---3-3-3---2---2-2---2-2-2---x---x-0---0-0-0--------|
E|x---x-x---x-x-x---x---x-x---x-x-x---3---3-3---3-3-3---x---x-x---x-x-x--------|
|
  Now hear I promise to listen, Why won't you go for that

  1 + 2 + 3 + 4 +   1 + 2 + 3 + 4 +   1 + 2 + 3 + 4 +   1 + 2 + 3 + 4 +
  D                 C                 G                 D     A
e|2---2-2---2-2-2---0---0-0---0-0-0---3---3-3---3-3-3---2---2-0---0-0-0--------|
B|3---3-3---3-3-3---1---1-1---1-1-1---3---3-3---3-3-3---3---3-2---2-2-2--------|
G|2---2-2---2-2-2---0---0-0---0-0-0---0---0-0---0-0-0---2---2-2---2-2-2--------|
D|0---0-0---0-0-0---2---2-2---2-2-2---0---0-0---0-0-0---0---0-2---2-2-2--------|
A|x---x-x---x-x-x---3---3-3---3-3-3---2---2-2---2-2-2---x---x-0---0-0-0--------|
E|x---x-x---x-x-x---x---x-x---x-x-x---3---3-3---3-3-3---x---x-x---x-x-x--------|
|
  Now hear I promise to hold you, Why won't you go for that

Verse 2:
  1 + 2 + 3 + 4 +   1 + 2 + 3 + 4 +   1 + 2 + 3 + 4 +   1 + 2 + 3 + 4 +
  D                 C                 G                 D     A
e|2---2-2---2-2-2---0---0-0---0-0-0---3---3-3---3-3-3---2---2-0---0-0-0--------|
B|3---3-3---3-3-3---1---1-1---1-1-1---3---3-3---3-3-3---3---3-2---2-2-2--------|
G|2---2-2---2-2-2---0---0-0---0-0-0---0---0-0---0-0-0---2---2-2---2-2-2--------|
D|0---0-0---0-0-0---2---2-2---2-2-2---0---0-0---0-0-0---0---0-2---2-2-2--------|
A|x---x-x---x-x-x---3---3-3---3-3-3---2---2-2---2-2-2---x---x-0---0-0-0--------|
E|x---x-x---x-x-x---x---x-x---x-x-x---3---3-3---3-3-3---x---x-x---x-x-x--------|
|
  If I had wings and I could fly, Well I'd still walk with you

  1 + 2 + 3 + 4 +   1 + 2 + 3 + 4 +   1 + 2 + 3 + 4 +   1 + 2 + 3 + 4 +
  D                 C                 G                 D     A
e|2---2-2---2-2-2---0---0-0---0-0-0---3---3-3---3-3-3---2---2-0---0-0-0--------|
B|3---3-3---3-3-3---1---1-1---1-1-1---3---3-3---3-3-3---3---3-2---2-2-2--------|
G|2---2-2---2-2-2---0---0-0---0-0-0---0---0-0---0-0-0---2---2-2---2-2-2--------|
D|0---0-0---0-0-0---2---2-2---2-2-2---0---0-0---0-0-0---0---0-2---2-2-2--------|
A|x---x-x---x-x-x---3---3-3---3-3-3---2---2-2---2-2-2---x---x-0---0-0-0--------|
E|x---x-x---x-x-x---x---x-x---x-x-x---3---3-3---3-3-3---x---x-x---x-x-x--------|
|
  If I had a safe place to lie, I'd want to lay with you

Chorus:
  1 + 2 + 3 + 4 +   1 + 2 + 3 + 4 +   1 + 2 + 3 + 4 +   1 + 2 + 3 + 4 +
  Bm                G                 D   Dsus2   D     A Asus2     A
e|2---2-2---2-2-2---3---3-3---3-3-3---2---0-0---0-2-----0-0---0---0-0----------|
B|3---3-3---3-3-3---3---3-3---3-3-3---3---3-3---3-3-----2-0---0---0-2----------|
G|4---4-4---4-4-4---0---0-0---0-0-0---2---2-2---2-2-----2-2---2---2-2----------|
D|4---4-4---4-4-4---0---0-0---0-0-0---0---0-0---0-0-----2-2---2---2-2----------|
A|2---2-2---2-2-2---2---2-2---2-2-2---x---x-x---x-x-----0-0---0---0-0----------|
E|2---2-2---2-2-2---3---3-3---3-3-3---x---x-x---x-x-----x-x---x---x-x----------|
|
  Concede and believe me, I won't give up I won't give out on you

  1 + 2 + 3 + 4 +   1 + 2 + 3 + 4 +   1 + 2 + 3 + 4 +   1 + 2 + 3 + 4 +
  Bm                G                 D   Dsus2   D     A Asus2     A
e|2---2-2---2-2-2---3---3-3---3-3-3---2---0-0---0-2-----0-0---0---0-0----------|
B|3---3-3---3-3-3---3---3-3---3-3-3---3---3-3---3-3-----2-0---0---0-2----------|
G|4---4-4---4-4-4---0---0-0---0-0-0---2---2-2---2-2-----2-2---2---2-2----------|
D|4---4-4---4-4-4---0---0-0---0-0-0---0---0-0---0-0-----2-2---2---2-2----------|
A|2---2-2---2-2-2---2---2-2---2-2-2---x---x-x---x-x-----0-0---0---0-0----------|
E|2---2-2---2-2-2---3---3-3---3-3-3---x---x-x---x-x-----x-x---x---x-x----------|
|
  Concede and believe me, I won't give up I won't give out on you


  1 + 2 + 3 + 4 +   1 + 2 + 3 + 4 +   1 + 2 + 3 + 4 +   1 + 2 + 3 + 4 +
  Bm                G                 D   Dsus2   D     A Asus2     A
e|2---2-2---2-2-2---3---3-3---3-3-3---2---0-0---0-2-----0-0---0---0-0----------|
B|3---3-3---3-3-3---3---3-3---3-3-3---3---3-3---3-3-----2-0---0---0-2----------|
G|4---4-4---4-4-4---0---0-0---0-0-0---2---2-2---2-2-----2-2---2---2-2----------|
D|4---4-4---4-4-4---0---0-0---0-0-0---0---0-0---0-0-----2-2---2---2-2----------|
A|2---2-2---2-2-2---2---2-2---2-2-2---x---x-x---x-x-----0-0---0---0-0----------|
E|2---2-2---2-2-2---3---3-3---3-3-3---x---x-x---x-x-----x-x---x---x-x----------|
|
  Oh no no no la la la la la

  1 + 2 + 3 + 4 +   1 + 2 + 3 + 4 +   1 + 2 + 3 + 4 +   1 + 2 + 3 + 4 +
  Bm                G                 D   Dsus2   D     A Asus2     A
e|2---2-2---2-2-2---3---3-3---3-3-3---2---0-0---0-2-----0-0---0---0-0----------|
B|3---3-3---3-3-3---3---3-3---3-3-3---3---3-3---3-3-----2-0---0---0-2----------|
G|4---4-4---4-4-4---0---0-0---0-0-0---2---2-2---2-2-----2-2---2---2-2----------|
D|4---4-4---4-4-4---0---0-0---0-0-0---0---0-0---0-0-----2-2---2---2-2----------|
A|2---2-2---2-2-2---2---2-2---2-2-2---x---x-x---x-x-----0-0---0---0-0----------|
E|2---2-2---2-2-2---3---3-3---3-3-3---x---x-x---x-x-----x-x---x---x-x----------|
|
  You....                                               Oh no

Cool Guitar transition
  1+2+3+4+   1 + 2 + 3 + 4 +   1+2+3+4+   1  +     2     + 3 +     4
  Bm         Dm    Dsus2 Csus2 Bm         Dm Dsus2 Csus2 Dm  Dsus2 Csus2
e|2----------5-----5-----3-----2----------5--5-----3-----5---5-----3---------|
B|3----------6-----5-----3-----3----------6--5-----3-----6---5-----3---------|
G|4----------7-----7-----5-----4----------7--7-----5-----7---7-----5---------|
D|4----------7-----7-----5-----4----------7--7-----5-----7---7-----5---------|
A|2----------5-----5-----3-----2----------5--5-----3-----5---5-----3---------|
E|2----------5-----5-----3-----2----------5--5-----3-----5---5-----3---------|

Verse 3:
  1 + 2 + 3 + 4 +   1 + 2 + 3 + 4 +   1 + 2 + 3 + 4 +   1 + 2 + 3 + 4 +
  D                 C                 G                 D     A
e|2---2-2---2-2-2---0---0-0---0-0-0---3---3-3---3-3-3---2---2-0---0-0-0--------|
B|3---3-3---3-3-3---1---1-1---1-1-1---3---3-3---3-3-3---3---3-2---2-2-2--------|
G|2---2-2---2-2-2---0---0-0---0-0-0---0---0-0---0-0-0---2---2-2---2-2-2--------|
D|0---0-0---0-0-0---2---2-2---2-2-2---0---0-0---0-0-0---0---0-2---2-2-2--------|
A|x---x-x---x-x-x---3---3-3---3-3-3---2---2-2---2-2-2---x---x-0---0-0-0--------|
E|x---x-x---x-x-x---x---x-x---x-x-x---3---3-3---3-3-3---x---x-x---x-x-x--------|
|
  So now you shut off and you shut down, Won't let nobody in


  1 + 2 + 3 + 4 +   1 + 2 + 3 + 4 +   1 + 2 + 3 + 4 +   1 + 2 + 3 + 4 +
  D                 C                 G                 D     A
e|2---2-2---2-2-2---0---0-0---0-0-0---3---3-3---3-3-3---2---2-0---0-0-0--------|
B|3---3-3---3-3-3---1---1-1---1-1-1---3---3-3---3-3-3---3---3-2---2-2-2--------|
G|2---2-2---2-2-2---0---0-0---0-0-0---0---0-0---0-0-0---2---2-2---2-2-2--------|
D|0---0-0---0-0-0---2---2-2---2-2-2---0---0-0---0-0-0---0---0-2---2-2-2--------|
A|x---x-x---x-x-x---3---3-3---3-3-3---2---2-2---2-2-2---x---x-0---0-0-0--------|
E|x---x-x---x-x-x---x---x-x---x-x-x---3---3-3---3-3-3---x---x-x---x-x-x--------|
|
  And when you shut off and you shut down, Won't play that fool again

Verse 4:
  1 + 2 + 3 + 4 +   1 + 2 + 3 + 4 +   1 + 2 + 3 + 4 +   1 + 2 + 3 + 4 +
  D                 C                 G                 D     A
e|2---2-2---2-2-2---0---0-0---0-0-0---3---3-3---3-3-3---2---2-0---0-0-0--------|
B|3---3-3---3-3-3---1---1-1---1-1-1---3---3-3---3-3-3---3---3-2---2-2-2--------|
G|2---2-2---2-2-2---0---0-0---0-0-0---0---0-0---0-0-0---2---2-2---2-2-2--------|
D|0---0-0---0-0-0---2---2-2---2-2-2---0---0-0---0-0-0---0---0-2---2-2-2--------|
A|x---x-x---x-x-x---3---3-3---3-3-3---2---2-2---2-2-2---x---x-0---0-0-0--------|
E|x---x-x---x-x-x---x---x-x---x-x-x---3---3-3---3-3-3---x---x-x---x-x-x--------|
|
  I've seen your inside--you stay inside,And I won't go for that

  1 + 2 + 3 + 4 +   1 + 2 + 3 + 4 +   1 + 2 + 3 + 4 +   1 + 2 + 3 + 4 +
  D                 C                 G                 D     A
e|2---2-2---2-2-2---0---0-0---0-0-0---3---3-3---3-3-3---2---2-0---0-0-0--------|
B|3---3-3---3-3-3---1---1-1---1-1-1---3---3-3---3-3-3---3---3-2---2-2-2--------|
G|2---2-2---2-2-2---0---0-0---0-0-0---0---0-0---0-0-0---2---2-2---2-2-2--------|
D|0---0-0---0-0-0---2---2-2---2-2-2---0---0-0---0-0-0---0---0-2---2-2-2--------|
A|x---x-x---x-x-x---3---3-3---3-3-3---2---2-2---2-2-2---x---x-0---0-0-0--------|
E|x---x-x---x-x-x---x---x-x---x-x-x---3---3-3---3-3-3---x---x-x---x-x-x--------|
|
  I've seen your quarters, Seen your crooked sacred pictures on the wall

Chorus:
  1 + 2 + 3 + 4 +   1 + 2 + 3 + 4 +   1 + 2 + 3 + 4 +   1 + 2 + 3 + 4 +
  Bm                G                 D   Dsus2   D     A Asus2     A
e|2---2-2---2-2-2---3---3-3---3-3-3---2---0-0---0-2-----0-0---0---0-0----------|
B|3---3-3---3-3-3---3---3-3---3-3-3---3---3-3---3-3-----2-0---0---0-2----------|
G|4---4-4---4-4-4---0---0-0---0-0-0---2---2-2---2-2-----2-2---2---2-2----------|
D|4---4-4---4-4-4---0---0-0---0-0-0---0---0-0---0-0-----2-2---2---2-2----------|
A|2---2-2---2-2-2---2---2-2---2-2-2---x---x-x---x-x-----0-0---0---0-0----------|
E|2---2-2---2-2-2---3---3-3---3-3-3---x---x-x---x-x-----x-x---x---x-x----------|
|
  Concede and believe me, I won't give up I won't give out on you

  1 + 2 + 3 + 4 +   1 + 2 + 3 + 4 +   1 + 2 + 3 + 4 +   1 + 2 + 3 + 4 +
  Bm                G                 D   Dsus2   D     A Asus2     A
e|2---2-2---2-2-2---3---3-3---3-3-3---2---0-0---0-2-----0-0---0---0-0----------|
B|3---3-3---3-3-3---3---3-3---3-3-3---3---3-3---3-3-----2-0---0---0-2----------|
G|4---4-4---4-4-4---0---0-0---0-0-0---2---2-2---2-2-----2-2---2---2-2----------|
D|4---4-4---4-4-4---0---0-0---0-0-0---0---0-0---0-0-----2-2---2---2-2----------|
A|2---2-2---2-2-2---2---2-2---2-2-2---x---x-x---x-x-----0-0---0---0-0----------|
E|2---2-2---2-2-2---3---3-3---3-3-3---x---x-x---x-x-----x-x---x---x-x----------|
|
  Concede and believe me, I won't give up I won't give out on you

  1 + 2 + 3 + 4 +   1 + 2 + 3 + 4 +   1 + 2 + 3 + 4 +   1 + 2 + 3 + 4 +
  Bm                G                 D   Dsus2   D     A Asus2     A
e|2---2-2---2-2-2---3---3-3---3-3-3---2---0-0---0-2-----0-0---0---0-0----------|
B|3---3-3---3-3-3---3---3-3---3-3-3---3---3-3---3-3-----2-0---0---0-2----------|
G|4---4-4---4-4-4---0---0-0---0-0-0---2---2-2---2-2-----2-2---2---2-2----------|
D|4---4-4---4-4-4---0---0-0---0-0-0---0---0-0---0-0-----2-2---2---2-2----------|
A|2---2-2---2-2-2---2---2-2---2-2-2---x---x-x---x-x-----0-0---0---0-0----------|
E|2---2-2---2-2-2---3---3-3---3-3-3---x---x-x---x-x-----x-x---x---x-x----------|
|
  Oh no no no la la la la la

  1 + 2 + 3 + 4 +   1 + 2 + 3 + 4 +   1 + 2 + 3 + 4 +   1 + 2 + 3 + 4 +
  Bm                G                 D   Dsus2   D     A Asus2     A
e|2---2-2---2-2-2---3---3-3---3-3-3---2---0-0---0-2-----0-0---0---0-0----------|
B|3---3-3---3-3-3---3---3-3---3-3-3---3---3-3---3-3-----2-0---0---0-2----------|
G|4---4-4---4-4-4---0---0-0---0-0-0---2---2-2---2-2-----2-2---2---2-2----------|
D|4---4-4---4-4-4---0---0-0---0-0-0---0---0-0---0-0-----2-2---2---2-2----------|
A|2---2-2---2-2-2---2---2-2---2-2-2---x---x-x---x-x-----0-0---0---0-0----------|
E|2---2-2---2-2-2---3---3-3---3-3-3---x---x-x---x-x-----x-x---x---x-x----------|
|
  You....                             Oh no

Verse 5:
  1 + 2 + 3 + 4 +   1 + 2 + 3 + 4 +   1 + 2 + 3 + 4 +   1 + 2 + 3 + 4 +
  G                 D                 A                 Asus2
e|3---3-3---3-3-3---2---2-2---2-2-2---0---0-0---0-0-0---0---0-0---0-0-0--------|
B|3---3-3---3-3-3---3---3-3---3-3-3---2---2-2---2-2-2---0---0-0---0-0-0--------|
G|0---0-0---0-0-0---2---2-2---2-2-2---2---2-2---2-2-2---2---2-2---2-2-2--------|
D|0---0-0---0-0-0---0---0-0---0-0-0---2---2-2---2-2-2---2---2-2---2-2-2--------|
A|2---2-2---2-2-2---x---x-x---x-x-x---0---0-0---0-0-0---0---0-0---0-0-0--------|
E|3---3-3---3-3-3---x---x-x---x-x-x---x---x-x---x-x-x---x---x-x---x-x-x--------|
|
  I'll be your jester--be your fool,                    Compromising fool

  1 + 2 + 3 + 4 +   1 + 2 + 3 + 4 +   1+2+3+4+ 1+2+3+4+ 1 + 2 + 3 + 4 +
  G                 D                 A                 Bm    Bsus  Asus2
e|3---3-3---3-3-3---2---2-2---2-2-2---0-----------------2-----2-----0----------|
B|3---3-3---3-3-3---3---3-3---3-3-3---2-----------------3-----2-----0----------|
G|0---0-0---0-0-0---2---2-2---2-2-2---2-----------------4-----4-----2----------|
D|0---0-0---0-0-0---0---0-0---0-0-0---2-----------------4-----4-----2----------|
A|2---2-2---2-2-2---x---x-x---x-x-x---0-----------------2-----2-----0----------|
E|3---3-3---3-3-3---x---x-x---x-x-x---x-----------------2-----2-----x----------|
|
  I'll be your jester--be your fool

  1 + 2 + 3 + 4 +   1 + 2 + 3 + 4 +   1 + 2 + 3 + 4 +   1 + 2 + 3 + 4 +
  Bm                G                 D   Dsus2   D     A Asus2     A
e|2---2-2---2-2-2---3---3-3---3-3-3---2---0-0---0-2-----0-0---0---0-0----------|
B|3---3-3---3-3-3---3---3-3---3-3-3---3---3-3---3-3-----2-0---0---0-2----------|
G|4---4-4---4-4-4---0---0-0---0-0-0---2---2-2---2-2-----2-2---2---2-2----------|
D|4---4-4---4-4-4---0---0-0---0-0-0---0---0-0---0-0-----2-2---2---2-2----------|
A|2---2-2---2-2-2---2---2-2---2-2-2---x---x-x---x-x-----0-0---0---0-0----------|
E|2---2-2---2-2-2---3---3-3---3-3-3---x---x-x---x-x-----x-x---x---x-x----------|
|

  1 + 2 + 3 + 4 +   1 + 2 + 3 + 4 +   1 + 2 + 3 + 4 +   1 + 2 + 3 + 4 +
  Bm                G                 D   Dsus2   D     A Asus2     A
e|2---2-2---2-2-2---3---3-3---3-3-3---2---0-0---0-2-----0-0---0---0-0----------|
B|3---3-3---3-3-3---3---3-3---3-3-3---3---3-3---3-3-----2-0---0---0-2----------|
G|4---4-4---4-4-4---0---0-0---0-0-0---2---2-2---2-2-----2-2---2---2-2----------|
D|4---4-4---4-4-4---0---0-0---0-0-0---0---0-0---0-0-----2-2---2---2-2----------|
A|2---2-2---2-2-2---2---2-2---2-2-2---x---x-x---x-x-----0-0---0---0-0----------|
E|2---2-2---2-2-2---3---3-3---3-3-3---x---x-x---x-x-----x-x---x---x-x----------|
|

Chorus:
  1 + 2 + 3 + 4 +   1 + 2 + 3 + 4 +   1 + 2 + 3 + 4 +   1 + 2 + 3 + 4 +
  Bm                G                 D   Dsus2   D     A Asus2     A
e|2---2-2---2-2-2---3---3-3---3-3-3---2---0-0---0-2-----0-0---0---0-0----------|
B|3---3-3---3-3-3---3---3-3---3-3-3---3---3-3---3-3-----2-0---0---0-2----------|
G|4---4-4---4-4-4---0---0-0---0-0-0---2---2-2---2-2-----2-2---2---2-2----------|
D|4---4-4---4-4-4---0---0-0---0-0-0---0---0-0---0-0-----2-2---2---2-2----------|
A|2---2-2---2-2-2---2---2-2---2-2-2---x---x-x---x-x-----0-0---0---0-0----------|
E|2---2-2---2-2-2---3---3-3---3-3-3---x---x-x---x-x-----x-x---x---x-x----------|
|
  Concede and believe me, I won't give up I won't give out on you

  1 + 2 + 3 + 4 +   1 + 2 + 3 + 4 +   1 + 2 + 3 + 4 +   1 + 2 + 3 + 4 +
  Bm                G                 D   Dsus2   D     A
e|2---2-2---2-2-2---3---3-3---3-3-3---2---0-0---0-2-----0----------------------|
B|3---3-3---3-3-3---3---3-3---3-3-3---3---3-3---3-3-----2----------------------|
G|4---4-4---4-4-4---0---0-0---0-0-0---2---2-2---2-2-----2----------------------|
D|4---4-4---4-4-4---0---0-0---0-0-0---0---0-0---0-0-----2----------------------|
A|2---2-2---2-2-2---2---2-2---2-2-2---x---x-x---x-x-----0----------------------|
E|2---2-2---2-2-2---3---3-3---3-3-3---x---x-x---x-x-----x----------------------|
|
  Concede and believe me, I won't give up I won't give out
Tap to rate this tab
 
# A B C D E F G H I J K L M N O P Q R S T U V W X Y Z