Guitaretab - guitar tabs
Song name
# A B C D E F G H I J K L M N O P Q R S T U V W X Y Z

Sister Hazel - Wanted It To Be tab

------------------------------------------------------------
                Wanted It To Be (Intro)- Sister Hazel
------------------------------------------------------------

By: Bnl214@aol.com

This is the intro, played on electric guitar.  Ryan may play it with a slide, but I don't
use one.  Listen to the recording for the rhythm.  Thanks, enjoy!
[ Tab from: http://www.guitaretab.com/s/sister-hazel/29635.html ]
e|---------------------------------------------------------|
B|-----5-------5-------------------------------------------|
G|-----4-------4--4h6p4----------4--4-------4--------------|
D|-4h6-----4h6-----------6p4-----4--4-------4--------------|
A|-----------------------------2----------2----------------|
E|---------------------------------------------------------|

e|----------------------------------------------------0----|
B|------10-------10--------------------5----7-----0h2------|
G|------9--------9---------------------4----8--------------|
D|-9h11-----9h11-----9h11p9--------4h6------9--------------|
A|---------------------------11p9--------------------------|
E|---------------------------------------------------------|
Related for Wanted It To Be tab
Advertisement will be closed in 10 seconds