Song name
# A B C D E F G H I J K L M N O P Q R S T U V W X Y Z

Sister Hazel - Well Find It tab

-------------------------------------------------------------------------------
			     WE'LL FIND IT Sister Hazel
-------------------------------------------------------------------------------
Tabbed by: Willie Burns
Email: Wilbur1990@aol.com
My first tab, didn't find one on here for this song so I wrote it myself.  All the parts 
are there for the rhythm guitar, listen to the song to get the structure and the rhythm 
of course.
Tuning:
Intro/Verse:
e|--XX-/8--8--8--8----7---7--7--7--7--7---5---5---5---5-5-5-5----------------|
B|--XX-/8--8--8--8----8---10-10-10-10-8---6---6---6---6-6-6-6----------------|
G|--XX-/9--9--9--9----7---7--7--7--7--7---5---5---5---5-5-5-5----------------|
D|--XX-/10-10-10-10---9---9--9--9--9--9---7---5---7---5-5-5-5----------------|
A|---------------------------------------------------------------------------|
E|---------------------------------------------------------------------------|

Pre Chorus:
e|-----------5--5--5----8---5-5/7-7--8---5-5-7-7---||--8---5-5-7-7--8--------|
B|-----------6--6--6----8---6-6/8-8--8---6-6-8-8---||--8---6-6-8-8--8--------|
G|--7--7--7--5--5--5----9---5-5/7-7--9---5-5-7-7--||--9---5-5-7-7--9--------|
D|--7--7--7--7--7--7----10--7-7/9-9--10--7-7-9-9--||--10--7-7-9-9--10-------|
A|--5--5--5----------------------------------------||------------------------|
E|-------------------------------------------------||------------------------|
"...and I___ said___ oh yeah..."

Chorus:(pick if you like)
e|---8--8------------5--5---7--7-7---||----8--8----5-5-5---||---8----------------|
B|---8--8------------6--6---8--8-8---||----8--8----6-6-6---||---8----------------|
G|---9--9---5--5-5---5--5---7--7-7--||----9--9----5-5-5--||---9----------------|
D|---10-10--7--7-7---7--7---9--9-9--||----10-10---7-7-7--||---10---------------|
A|----------7--7-7-------------------||--------------------||--------------------|
E|----------5--5-5-------------------||4X------------------||3X------------------|
"...we'll find it, oh I know, I know..." 

************************************

| /   slide up
| \   slide down
| h   hammer-on
| p   pull-off
| ~   vibrato
| +   harmonic
| x   Mute note
| b   Bend
| pb  Pre-bend
| br  Bend release
| pbr Pre-bend release
| brb Bend release bend

************************************
Tap to rate this tab
 
# A B C D E F G H I J K L M N O P Q R S T U V W X Y Z