Song name
# A B C D E F G H I J K L M N O P Q R S T U V W X Y Z

Sister Hazel - Everything Else Disappears tab

Everything Else Disappears
Sister Hazel
Tabbed By: Justin Hergett
12/8 Time Tempo: 154
Capo: 2nd

Note: I did my best on actually depicting this song.  There are several guitar parts,
is the acoustic part, with some variations to accommodate the bass in the chorus.  Also I
some of the vary basic electric parts that come up toward the end of the song that are 
but add a lot to the song.  If you have any questions or anything feel free to
me at justin.hergett@gmail.com.  Enjoy!

Verse:
        F9           C             G          Gsus4        G
|-----------3------------3-----------------------------------3---|
|-------1------------1---------0-------0-0h1-------1-1p0---------|
|.----0------------0-----------0---0-----0-----0-----0----------.|
|.--3-----3----0h2-----2---------0-----------0------------0-----.|x3
|--------------------------0~------------------------------------|
|------------------------------3-----3---3-------3---3-----------|
    F9           C             G          Gsus4      G
|-----------3------------3------------------------------------|
|-------1------------1---------0-------0-0h1-------1-0~-------|
|-----0------------0-----------0---0-----0-----0-----0~-------|
|---3-----3----0h2-----2---------0-----------0----------------|
|--------------------------0~---------------------------------|
|------------------------------3-----3---3-------3---3~-------|

Pre-Chorus:
     Fsus2   Csus2       C    Fsus2   Am     G
|----------1-----------------------1-------------------------|
|----------1--------1---1----------1------1------3-----------|
|--------0--------0-----0--------0--------2------0-----------|
|------3--------0-------0h2----3--------2------0-------------|
|------------3--------3---------------0----------------------|
|----1-----------------------1---------------3---------------|
     Fsus2   Csus2       C     G           Gsus4       G
|----------1-----------------------------------------------------|
|----------1--------1---1------0--------0-0h1-------------3~-----|
|--------0--------0-----0------0---0------0-----0--------0~------|
|------3--------0-------0h2------0------------0---------0~-------|
|------------3--------3--------------------------------2~--------|
|----1-------------------------3-----3----------------3~---------|

Chorus:
     C        G(Dm7)   F9        G  Gsus4     Csus2          C
||------------------3------------------3--|----------------------|
||--0--1---3--0--1--3--0--1---3--0--1--3--|----------1--1-1-1----|
||.------0------------------0------------.|--------0----0-0-0----|
||.-----------0--------2---------3-------.|------0------0-0-0h2--|
||--3-------------------------------------|---3-------3----------|
||----------------------------------------|----------------------|
                    x4                       End of fourth time
Verse 2:
        F9         C               G          Gsus4        G
|-----------3------------3-----------------------------------3---|
|-------1------------1---------0-------0-0h1-------1-1p0---------|
|.----0------------0-----------0---0-----0-----0-----0----------.|
|.--3-----3----0h2-----2---------0-----------0------------0-----.|x4
|--------------------------0~------------------------------------|
|------------------------------3-----3---3-------3---3-----------|

Pre-Chorus:
     Fsus2   Csus2       C    Fsus2   Am     G
|----------1-----------------------1-------------------------|
|----------1--------1---1----------1------1------3-----------|
|--------0--------0-----0--------0--------2------0-----------|
|------3--------0-------0h2----3--------2------0-------------|
|------------3--------3---------------0----------------------|
|----1-----------------------1---------------3---------------|
     Fsus2   Csus2       C     G           Gsus4       G
|----------1-----------------------------------------------------|
|----------1--------1---1------0--------0-0h1-------------0~-----|
|--------0--------0-----0------0---0------0-----0--------0~------|
|------3--------0-------0h2------0------------0---------0~-------|
|------------3--------3--------------------------------2~--------|
|----1-------------------------3-----3----------------3~---------|

Chorus:
     C        G(Dm7)   F9        G  Gsus4
|------------------3------------------3--|
|--0--1---3--0--1--3--0--1---3--0--1--3--|
|.------0------------------0------------.| X 5
|.-----------0--------2---------3-------.|
|--3-------------------------------------|
|----------------------------------------|

Bridge:
  Am         G           C           Fsus2      F
|-----------------------------------------------1-----|
|-----1----1-----0h1--0------1----1------1-----1------|
|-----2---2------0---0-------0---0-------0----0h2-----|
|---2----2-----0----0------0----0h2----3-----3--------|
|-0-----0----------2-----3-----3------------3---------|
|------------3----3------------------1-----1----------|

    Am         G           F/C          F/C
|---------------------------------------3~----|
|-----1----1-----0----0h1----1----1----1~-----|
|-----2---2------0---0-------0----0---0~------|
|---2----2-----0----0------3----3----3~-------|
|-0-----0----------2--------------------------|
|------------3----3------1-----1---1~---------|

Chorus:
     C        G(Dm7)   F9        G  Gsus4
|-------------------3-------------------3--|
|--0--1---3--0--1---3--0--1---3--0--1---3--|
|.------0---------0---------0---------0---.| X 5
|.-----------0---------2---------3--------.|
|--3---------------------------------------|
|------------------------------------------|

Csus2          C
|----------------------|
|--------1----1-1-1----|
|--------0----0-0-0----|
|------0------0-0-0h2--|
|---3-------3--3--3----|
|----------------------|


Electric Guitar Parts (various places):
|--12--14--| |-----------|
|--14--15--| |--14-15----|
|----------| |--------14-|
|----------| |-----------|
|----------| |-----------|
|----------| |-----------|
Tap to rate this tab
# A B C D E F G H I J K L M N O P Q R S T U V W X Y Z