Song name
# A B C D E F G H I J K L M N O P Q R S T U V W X Y Z

Sister Hazel - Mandolin Moon tab

Song: Mandolin Moon
By: Sister Hazel
Album: Absolutely
Tab by: Michael Barnett (rockthemike@aol.com)

Intro
--6-----6-------------|
--6-----6-------------|
--h7----h8------------|
--h8----h8------------|
--h8----6-------------|
--6-----6-------------|

Verse:
"Everything changes.."   "When you move me..."
--6-----6---------------------4---6--|
--6-----6---------------------4---6--|
--h7----h8----(x4)------------5---8--|
--h8----h8--------------------6---8--|
--h8----6---------------------6---6--|
--6-----6---------------------4---6--|

Prechorus:
"It's alright if you're late..."
--3----1----6--------|
--3----2----8--------|
--5----3----8--------|
--5----3----6--------|
--3----1----6--------|


Chorus:
"Shine down, light it up..."
--6----1----6--------|
--6----1----6--------|
--7----2----8--------|
--8----3----8--------|
--8----3----6--------|
--6----1----6--------|

"Come along I'll be waiting for you..."
--3----1------------|
--3----1------------|
--3----2------------|
--5----3------------|
--5----3------------|
--3----1------------|

Bridge:
"I'm waiting, still waiting..."
--3----1----6---------3--1--6-|
--3----1----6---------3--1--6-|
--3----2----7----(x2)-3--2--8-|
--5----3----8---------5--3--8-|
--5----3----8---------5--3--6-|
--3----1----6---------3--1--6-|
Tap to rate this tab
# A B C D E F G H I J K L M N O P Q R S T U V W X Y Z