Guitaretab - guitar tabs
Song name
# A B C D E F G H I J K L M N O P Q R S T U V W X Y Z

Sister Hazel - Sweet Destiny tab

-------------------------------------------------------------------------------
			     Sweet Destiny - Sister Hazel
-------------------------------------------------------------------------------
Tabbed by: Heath Anderson
Email: washburn1989@gmail.com
Tuning: Standard


Intro
e|-9-9-------0-----7-7-12--9-9-------0-17-17-12-12-5----|
B|-----10-10---0-0-------------10-10--------------------|
G|------------------------------------------------------|
D|------------------------------------------------------|
A|------------------------------------------------------|
E|------------------------------------------------------|


e|-9-9-------0-----7-7-12--9-9-------0-17-17-12-12-5----|
B|-----10-10---0-0-------------10-10--------------------|
G|------------------------------------------------------|
D|------------------------------------------------------|
A|------------------------------------------------------|
E|------------------------------------------------------|

Verse
e|-9-9-------0-----7-7-12--9-9-------0-17-17-12-12-5----|
B|-----10-10---0-0-------------10-10--------------------|
G|------------------------------------------------------|
D|------------------------------------------------------|
A|------------------------------------------------------|
E|------------------------------------------------------|
I will listen and I will talk to you 

e|-9-9-------0-----7-7-12--9-9-------0-17-17-12-12-5----|
B|-----10-10---0-0-------------10-10--------------------|
G|------------------------------------------------------|
D|------------------------------------------------------|
A|------------------------------------------------------|
E|------------------------------------------------------|
And I will run away with you if you ask me to

A            E         F#/Gbm          D  
And I will sing if you will dance for me and
A            E         F#/Gbm          D
I will paint the Mona Lisa but you look like you 

Pre-chorus
E                 F#/Gbm        D            E  
It seems like everywhere I turn I burn in my own skin and
F#/Gbm        D           E
Wonít you comfort me old friend
[ Tab from: http://www.guitaretab.com/s/sister-hazel/91983.html ]
Chorus
A           E           F#/Gbm            D
Sweet destiny you tapped me with your finger 
           A           E           F#/Gbm               D            
And you looked into my eyes for the believer when Iíve lost my way
A           E          F#/Gbm           D     
Sweet destiny how long have you been looking for me 
A                 E                    F#/Gbm           B             F#/Gbm
Cause Iíve been searching all the wrong bars and churches endless searches to
   D
harbor me

Verse
A            E           F#/Gbm            D
And I will quit all the things that do not fit
A            E           F#/Gbm            D
And we will watch the sunrise and the moon beginning
A            E           F#/Gbm                  D
Believe believe cause thereís times when itís so hard to do just that
A             E          F#/Gbm                  D
Itís much too much to comprehend where I belong at all

Pre-chorus
E               F#/Gbm       D              E
It seems like everywhere I turn I burn in my own skin and
F#/Gbm        D         E    
Wonít you comfort me old friend

Chorus
A           E           F#/Gbm            D
Sweet destiny you tapped me with your finger 
           A           E           F#/Gbm               D            
And you looked into my eyes for the believer when Iíve cast my doubts
A           E          F#/Gbm           D     
Sweet destiny how long have you been looking for me 
A                 E                    F#/Gbm           B             F#/Gbm
Cause Iíve been hiding in all the wrong bars and churches endless searches to
   D
cover me

Random Jam
A  E  F#/Gbm  D
A  E  F#/Gbm  D
A  E  F#/Gbm  D
A  E  F#/Gbm  D

Chorus
A           E           F#/Gbm            D
Sweet destiny you tapped my shoulder with your finger 
           A           E           F#/Gbm               D            
And you looked into my eyes for the believer when Iíve lost my way
A           E          F#/Gbm           D     
Sweet destiny how long have you been looking for me 
A                 E                    F#/Gbm           B       F#/Gbm   D
Cause Iíve been searching all the wrong bars and churches endless searches... 

Verse
A            E            F#/Gbm              D
And I will shine and youíll remind me to be gracious
A            E            F#/Gbm              D
And I will be the perfect stranger that you tell your secrets to
A            E       F#/Gbm     D
And I will listen and I will talk to you
A            E       F#/Gbm     D
And I will run away with you if you ask me to



Chords

     A            E         F#/Gbm         D            B
e|---0---|   e|---0---|   e|---2---|   e|---2---|   e|---7---|
B|---2---|   B|---0---|   B|---2---|   B|---3---|   B|---7---|
G|---2---|   G|---1---|   G|---2---|   G|---2---|   G|---8---|
D|---2---|   D|---2---|   D|---4---|   D|---0---|   D|---9---|
A|---0---|   A|---2---|   A|---4---|   A|---x---|   A|---9---|
E|---0---|   E|---0---|   E|---2---|   E|---x---|   E|---7---|
Related for Sweet Destiny tab