Song name
# A B C D E F G H I J K L M N O P Q R S T U V W X Y Z

Sister - Spit On Me tab

-------------------------------------------------------------------------------
                             SPIT ON ME - SISTER
-------------------------------------------------------------------------------
Tabbed by:Jonny Ford
Twitter:https://twitter.com/J0NNYF0RD

Tuning:Half-Step Down: Eb Ab Db Gb Bb eb

Intro:

e|---------------------------------------------------------------------------|
B|---------------------------------------------------------------------------|
G|---------------------------------------------------------------------------|
D|-x-2--2-2-2-2-2-2-x-5--5-5-5-4--2--2-2-2-2-2-2-x-5--5-5-5-4-x-x-4\5-x-2----|
A|-x-2--2-2-2-2-2-2-x-5--5-5-5-4--2--2-2-2-2-2-2-x-5--5-5-5-4-x-x-4\5-x-2----|
E|-x-0--0-0-0-0-0-0-x-3--3-3-3-2--0--0-0-0-0-0-0-x-3--3-3-3-2-x-x-2\3-x-0----|
        x x x x x x                  x x x x x x
e|---------------------------------------------------------------------------|
B|---------------------------------------------------------------------------|
G|---------------------------------------------------------------------------|
D|-2-2-2-2-2-2-x-5--5-5-5-4--2--2-2-----------x-5--5-5-5-4-x-x-4\5-x-2-------|
A|-2-2-2-2-2-2-x-5--5-5-5-4--2--2-2-----------x-5--5-5-5-4-x-x-4\5-x-2-------|
E|-0-0-0-0-0-0-x-3--3-3-3-2--0--0-0-0000-0000-x-3--3-3-3-2-x-x-2\3-x-0-------|
   x x x x x x                  x x xxxx xxxx
e|---------------------------------------------------------------------------|
B|---------------------------------------------------------------------------|
G|---------------------------------------------------------------------------|
D|-2-2-2-2-----2-2-2-2-5--5-5-5-4-x-x-4\5-x-2--------------------------------|
A|-2-2-2-2-----2-2-2-2-5--5-5-5-4-x-x-4\5-x-2-----------\14------------------|
E|-0-0-0-0-3p0-0-0-0-0-3--3-3-3-2-x-x-2\3-x-0--------------------------------|
   x   x x     x
e|---------------------------------------------------------------------------|
B|---------------------------------------------------------------------------|
G|-5-x-x-4-x-----------------5-5-5-5-5-5--7-x-4-4-4-4------------------------|
D|-5-x-x-4-x-2--2-2-2-2-2-2--5-5-5-5-5-5--7-x-4-4-4-4------------------------|
A|-3-x-x-2-x-2--2-2-2-2-2-2--3-3-3-3-3-3--5-x-2-2-2-2------------------------|
E|-----------0--0-0-0-0-0-0--------------------------------------------------|

e|---------------------------------------------------------------------------|
B|---------------------------------------------------------------------------|
G|-5-x-x-4-x-----------------------------------------------------------------|
D|-5-x-x-4-x-2--2-2-2-2-2-2--5-5-5-4-----------------------------------------|
A|-3-x-x-2-x-2--2-2-2-2-2-2--5-5-5-4-----------------------------------------|
E|-----------0--0-0-0-0-0-0--3-3-3-2-----------------------------------------|


Verse: Listen for strumming pattern 
(Play Twice)

e|---------------------------------------------------------------------------|
B|---------------------------------------------------------------------------|
G|-9-9-9-9-9-9-9-9-9-12-12-12-12-12-12-12-12-12-12-12-5-5-5-5-5-5-5-5-5------|
D|----------------------------------------------------5-5-5-5-5-5-5-5-5------|
A|-7-7-7-7-7-7-7-7-7-10-10-10-10-10-10-10-10-10-10-10-3-3-3-3-3-3-3-3-3------|
E|---------------------------------------------------------------------------|

e|---------------------------------------------------------------------------|
B|---------------------------------------------------------------------------|
G|------------------------------------X2-------------------------------------|
D|-5-5-5-5-5-4-4-4-4-4-4-4---------------------------------------------------|
A|-5-5-5-5-5-4-4-4-4-4-4-4---------------------------------------------------|
E|-3-3-3-3-3-2-2-2-2-2-2-2---------------------------------------------------|
               x x x x x x

Pre Chorus:
e|----7--7/5-5---------------------------------------------------------------|
B|-\5--5----3--1-------------------------------------------------------------|
G|---------------------5--7-7-7-7--------------------------------------------|
D|---------------2--5--5--7-7-7-7--------------------------------------------|
A|---------------2--5--3--5-5-5-5--------------------------------------------|
E|---------------0--3--------------------------------------------------------|

Chorus:
e|---------------------------------------------------------------------------|
B|---------------------------------------------------------------------------|
G|-5-4---------------5-5-5-5-7---4-4-4-4--5----------------------------------|
D|-5-4-2-2-2-2-2-2-2-5-5-5-5-7-x-4-4-4-4--5-2-2-2-2-2-2-2-5-5-5-5-4-x-x-x-x-x|
A|-3-2-2-2-2-2-2-2-2-3-3-3-3-5-x-2-2-2-2--3-2-2-2-2-2-2-2-5-5-5-5-4-x-x-x-x-x|
E|-----0-0-0-0-0-0-0-----------x------------0-0-0-0-0-0-0-3-3-3-3-2-x-x-x-x-x|

e|---------------------------------------------------------------------------|
B|---------------------------------------------------------------------------|
G|-5-4---------------5-5-5-5-7---4-4-4-4--5-7--------------------------------|
D|-5-4-2-2-2-2-2-2-2-5-5-5-5-7-x-4-4-4-4--5-7-2-2-2-2-2-2-2-2-5-5-5-4--------|
A|-3-2-2-2-2-2-2-2-2-3-3-3-3-5-x-2-2-2-2--3-5-2-2-2-2-2-2-2-2-5-5-5-4--------|
E|-----0-0-0-0-0-0-0-----------x--------------0-0-0-0-0-0-0-0-3-3-3-2--------|

Then Back to the:
.Verse
.Pre Chorus
.Chorus

Bridge:

e|---------------------------------------------------------------------------|
B|---------------------------------------------------------------------------|
G|-7--5--4-------------------------7-7---------------------------------------|
D|-7--5--4-------------------------7-7---------------------------------------|
A|-5--3--2-------------------------5-5---------------------------------------|
E|----------3p0-0-5p0-0-7p0-0-8p-0-------------------------------------------|

Solo:

e|---------------------------------------------------------------------------|
B|-----15--------------------------------------------------------------------|
G|-b14----br14-12-----------12-14-12-b14-14-b14-12 14--14-12---12------------|
D|----------------14--12-14----------------------------------14--------------|
A|---------------------------------------------------------------------------|
E|---------------------------------------------------------------------------|

e|---------------------------------------------------------------------------|
B|---------------------------------------------------------------------------|
G|-------------------------------12-14-b14-br14-12-14~-----------------------|
D|-14-14-14-12----12-------12-14---------------------------------------------|
A|-------------14----12-14---------------------------------------------------|
E|---------------------------------------------------------------------------|
   x  x  x 
e|---------------------------------------------------------------------------|
B|-12-12h15p12-12h15p12-12h15p12-12h15p12-12h15p12-12h15p12--12h15p12--------|
G|---------------------------------------------------------------------------|
D|---------------------------------------------------------------------------|
A|---------------------------------------------------------------------------|
E|---------------------------------------------------------------------------|

e|---------------------------------------------------------------------------|
B|-12h15p12-12h15p12-12h15p12-12h15p12---------------------------------------|
G|-------------------------------------14-b14-br14~--14-12----12----------12-|
D|---------------------------------------------------------14----14-12-14----|
A|---------------------------------------------------------------------------|
E|---------------------------------------------------------------------------|

e|---------------------------------------------------------------------------|
B|---------------------------------------------------------------------------|
G|-------12-14-12-b14-b14-b14-12-14~-----------------------------------------|
D|-12-14---------------------------------------------------------------------|
A|---------------------------------------------------------------------------|
E|---------------------------------------------------------------------------|

e|---------------------------------------------------------------------------|
B|---------------------------------------------------------------------------|
G|-5-9-7-5-4-4---------------------------------------------------------------|
D|-5-9-7-5-4-4-x-x-x-x-x-x-x-x-----------------------------------------------|
A|-3-7-5-3-2-2-x-x-x-x-x-x-x-x-----------------------------------------------|
E|-------------x-x-x-x-x-x-x-x-----------------------------------------------|

Then Back to the:

.Chorus

Outro:

e|-------------------X7||------------------------------------------------------|
B|---------------------||------------------------------------------------------|
G|-5-4-----------------||------------------------------------------------------|
D|-5-4-2-2-2-2-2-2-2-2-||-5-5-5-4-X-X-2----------------------------------------|
A|-3-2-2-2-2-2-2-2-2-2-||-5-5-5-4-X-X-2----------------------------------------|
E|-----0-0-0-0-0-0-0-0-||-3-3-3-2-X-X-0----------------------------------------|


Alternative Outro(Second guitar): Keeping strumming the chord
e|-----------------------|
B|-----------------------|
G|-9---------------------|
D|-----------------------|
A|-7---------------------|
E|-----------------------|


************************************

| /   slide up
| \   slide down
| h   hammer-on
| p   pull-off
| ~   vibrato
| +   harmonic
| x   Mute note
| b   Bend
| pb  Pre-bend
| br  Bend release
| pbr Pre-bend release
| brb Bend release bend

************************************
Tap to rate this tab
# A B C D E F G H I J K L M N O P Q R S T U V W X Y Z