Song name
# A B C D E F G H I J K L M N O P Q R S T U V W X Y Z

Sisteray - She Likes The Drama tab

Band: Sisteray
Song: She Likes The Drama
Album: She Likes The Drama - EP
Release Date: 17th February 2014

Chords

D#m x68876
F#  244322
B   799877
Bb  688766
B*  x24442


Niall's Guitar

|---------|     |----------|    |---------|   |---------|    |---------|
|---------|     |----------|    |---------|   |---------|    |---------|
|---------| D#m |----------| F# |---------| B |---------| Bb |---------|
|---------|     |----------|    |---------|   |---------|    |---------|
|---------|     |-6-4----4-|    |---------|   |---------|    |---------|
|-6-9-6-9-|     |-----6----|    |-2-4-2-4-|   |-7-9-7-9-|    |-6-9-6-9-|

**Niall plays this riff throughout the intro and verses

Dan's Guitar

(RIFF A)

D#m            F#            B              Bb
|-------------|-------------|------------6-|----9--|
|----9--7--7~-|--------7----|----9--7------|-------|
|--------8----|----7H8---8~-|----------8---|-------|
|-------------|-------------|--------------|-------|
|-------------|-------------|--------------|-------|
|-------------|-------------|--------------|-------|

(RIFF B)

D#m            F#            B              Bb
|-------------|-------------|------------6-|------------------|
|----9--7--7~-|--------7----|----9--7------|------------------|
|--------8----|----7H8---8~-|----------8---|------------------|
|-------------|-------------|--------------|------------------|
|-------------|-------------|--------------|--------2H4/5--1~-|
|-------------|-------------|--------------|---2H4------------|

(RIFF C)

D#m            F#            B              Bb
|-------------|-------------|------------6-|----9--9--9--9-|
|----9--7--7~-|--------7----|----9--7------|---------------|
|--------8----|----7H8---8~-|----------8---|---------------|
|-------------|-------------|--------------|---------------|
|-------------|-------------|--------------|---------------|
|-------------|-------------|--------------|---------------|

(RIFF D)

 D#m      B*      F#      B
|-------|--------|-------|-------|
|-------|--------|-------|-------|
|-------|--------|-------|-------|
|-------|--------|-------|-------|
|-6~~~~-|-2~~~~~-|-9~~~~-|-2~~~~-|
|-------|--------|-------|-------|

 D#m      B*      F#        B  Bb
|-------|--------|-------|---------|
|-------|--------|-------|---------|
|-------|--------|-------|---------|
|-------|--------|-------|---------|
|-6~~~~-|-2~~~~~-|-9~~~~-|--2---1--|
|-------|--------|-------|---------|

(RIFF E)

 D#m      B*      F#      B
|-------|--------|-------|-------|
|-------|--------|-------|-------|
|-------|--------|-------|-------|
|-------|--------|-------|-------|
|-6~~~~-|-2~~~~~-|-9~~~~-|-2~~~~-|
|-------|--------|-------|-------|

 D#m      B*      F#        B  
|-------|--------|-------|---------------------|
|-------|--------|-------|---------------------|
|-------|--------|-------|---------------------|
|-------|--------|-------|---------------------|
|-6~~~~-|-2~~~~~-|-9~~~~-|-2222-4444-6666-8888-|
|-------|--------|-------|---------------------|

INTRO

Bar #1 - Niall Only
Bar #2 - RIFF A (x2)

VERSES

RIFF A / RIFF B / RIFF C

CHORUS

RIFF D

NB - on last chorus, hit notes constantly (i.e. |-666666666666666--2222222222222-|

MIDDLE (instrumental part0

RIFF E




Lyrics:
Damsel in distress
She needs a hero
To shield her pretty eyes
'cos these are thing she shouldn't 
Well you might fool them
But you don't fool me

She likes the drama
She don't turn her head
She don't look away
She just watches instead
She likes the violence
And the excitement 
As punches are thrown
Well your cover's blown

Damsel in distress
She needs a hero
To shield her pretty eyes
'cos these are thing she shouldn't 
And she walks away
Reluctantly

She likes the drama
She don't turn her head
She don't look away
She just watches instead
She likes the violence
And the excitement 
As punches are thrown
Well your cover's blown

She likes the drama
She don't turn her head
She don't look away
She just watches instead
She likes the violence
And the excitement 
As punches are thrown
Well you're on your own
Tap to rate this tab
# A B C D E F G H I J K L M N O P Q R S T U V W X Y Z