Guitaretab - guitar tabs
Song name
# A B C D E F G H I J K L M N O P Q R S T U V W X Y Z

Sisters By Mistake - Backstab tab

                      ---------------------
                         Showoff-Backstab
                      ---------------------

Tabbed by: Steven Bryant

Legend:
...-palm mute

Intro:

[Guitar One]

e--------------------------------------|
b--------------------------------------|
g--------------------------------------|
d-9-9-9-9-9-9-9-9-6-6-6-6-6-6-6-6-|
a-7-7-7-7-6-6-6-6-4-4-4-4-4-4-4-4-|
e--------------------------------------|

e--------------------------------------|
b--------------------------------------|
g--------------------------------------|
d--------------------------------------|
a-7-7-7-7-7-7-7-7-9-9-9-9-9-9-9-9-|
e-5--5-5-5-5-5-5-5-7-7-7-7-7-7-7-7-|

(x2)

[Guitar Two]

e--------------------------------------|
b--------------------------------------|
g-9-9-9-9-8-8-8-8-13-11-9-11-9-----|
d-x-x-x-x-x-x-x-x-x-x-x-x-x-----|
a--7--7-7-7-6-6-6-6-11-9-7-9-7-----|
e--------------------------------------|

e--------------------------------------|
b--------------------------------------|
g---------------------13-13-11-11-11---|
d----------------------x-x-x-x-x---|
a-7-7-7-7-7-7-7-7-11-11-9--9--9---|
e-5--5-5-5-5-5-5-5-------------------|

(x2)

Verse:

[Both guitars]

e--------------------------------------------------|
b--------------------------------------------------|
g--------------------------------------------------|
d-6-6-6-6-9-9-9-9------------------------------|
a-4-4-4-4-7-7-7-7-7-7-7-7-7-7-7-7-------------|
e--------------------5-5-5-5-5-5-4-5-------------|

e--------------------------------------------------|
b--------------------------------------------------|
g--------------------------------------------------|
d-6-6-6-6--------------------------------------|
a-4-4-4-4-9-9-9-9-9-7-7-7-7-7-7-7-7-7-7-7-7-|
e-----------7-7-7-7-7-5-5-5-5-5-5-5-5-5-5-5-5-|
                        ...    ...    ...    ...

(x2)

Pre-Chorus:

[Both Guitars]
[ Tab from: http://www.guitaretab.com/s/sisters-by-mistake/53443.html ]
e----------------------------------------------|
b----------------------------------------------|
g----------------------------------------------|
d-9-9-9-9-9-9-9-9-----------------------------|
a-7-7-7-7-7-7-7-7-7-7-7-7-7-7-7-7-------------|
e------------------5-5-5-5-5-5-5-5-------------|

(x2)

e----------------------------------------------|
b----------------------------------------------|
g----------------------------------------------|
d----------------------------------------------|
a-6-6-6-6-6-6-6-6-9-9-9--9-9-9--9-9-9--9-9-9-|
e-4-4-4-4-4-4-4-4--7-77--7-7-7--7-7-7--7-7-7-|

(x2)

Chorus:

[Guitar One]

e--------------------------------------|
b--------------------------------------|
g--------------------------------------|
d-9-9-9-9-9-9-9-9-6-6-6-6-6-6-6-6-|
a-7-7-7-7-6-6-6-6-4-4-4-4-4-4-4-4-|
e--------------------------------------|

e--------------------------------------|
b--------------------------------------|
g--------------------------------------|
d--------------------------------------|
a-7-7-7-7-7-7-7-7-9-9-9-9-9-9-9-9-|
e-5--5-5-5-5-5-5-5-7-7-7-7-7-7-7-7-|

(x2)

[Guitar Two]

e--------------------------------------|
b--------------------------------------|
g-9-9-9-9-8-8-8-8-13-11-9-11-9-----|
d-x-x-x-x-x-x-x-x-x-x-x-x-x-----|
a--7--7-7-7-6-6-6-6-11-9-7-9-7-----|
e--------------------------------------|

e--------------------------------------|
b--------------------------------------|
g---------------------13-13-11-11-11---|
d----------------------x-x-x-x-x---|
a-7-7-7-7-7-7-7-7-11-11-9--9--9---|
e-5--5-5-5-5-5-5-5-------------------|

(x2)

[Verse]

[Pre-Chorus]

[Chorus]

Outro:

[Both guitars]

e-----------------------------------------|
b-----------------------------------------|
g-----------------------------------------|
d-9--9-9-9-9--9-9-9-6--6-6-6-------------|
a-7-7-7-7-6-6-6-6-4--4-4-4-9-9-9-9----|
e-----------------------------7-7-7-7----|

e-----------------------------------------|
b-----------------------------------------|
g-----------------------------------------|
d--------------------9--------------------|
a-7--7-7-7-9-9-9-9-7--------------------|
e-5-5-5-5-7-7-7-7----------------------|


Questions? Comments?

AIM: stevn53091
E-mail: elix997@hotmail.com
Related for Backstab tab