Song name
# A B C D E F G H I J K L M N O P Q R S T U V W X Y Z

Sisters Of Mercy - Crash And Burn tab

Main Riff

x3
-----------------------------------------------------|
-----------------------------------------------------|
-----------------------------------------------------|
-4----------4----------4-2-4----------4----------4/5-|
-4----------4----------4-2-4----------4----------4/5-|
-2--2-2-2-2-2--2-2-2-2-2-0-2--2-2-2-2-2--2-2-2-2-2/3-|
    pm-----    pm-----        pm-----    pm-----

x1
--------------------------|
--------------------------|
--------------------------|
-----5--2-------5-4b5b4-0-|
--2-------2---2-----------|
-0-----------0------------|


Chorus

x3
--------------------------|
--------------------------|
-4---6-7----9------9\7----|
-4---6-7----9------9\7----|
-2---4-5----7------7\5----|
--------------------------|

x1
--------------------------|
--------------------------|
-4----------9-------------|
-4----------9-------------|
-2----------7-------------|
--------------------------|


Break

------------------------------------|
------------------------------------|
------------4-----------------------|
-5----------4----------5----------2-|
-5----------2----------5----------2-|
-3---------------------3----------0-|
Tap to rate this tab
# A B C D E F G H I J K L M N O P Q R S T U V W X Y Z