Guitaretab - guitar tabs
Song name
# A B C D E F G H I J K L M N O P Q R S T U V W X Y Z

Sisters Of Mercy - More tab

Intro/ verse:

Palm muted (guitar arranged for synth.)
e----------------------------------------------------------|
B----------------------------------------------------------|
G----------------------------------------------------------|
D-10/8/10-10-10-10-10-10-10---10/8/10-10-10-10-10-10-10--|
A-10/8/10-10-10-10-10-10-10---10/8/10-10-10-10-10-10-10--|
E-8/8/-8---8-8-8-8--8--8---8/8/-8---8-8-8-8--8--8--|
[ Tab from: http://www.guitaretab.com/s/sisters-of-mercy/143229.html ]
(continue)
e---------------------------------------------|
B---------------------------------------------|
G------10--10-10-10-10--8-8-8/10/-------------|
D-10/8/10-10-10-10-10--8-8-8/10/10-----------|
A-10/8/-8--8--8-8--8--6-6-6/-8/10-----------|
E-8/8/------------------------8-----------|


Chorus:

Guitar 1
e-----------------------------------------------------|
B-----------------------------------------------------|
G------------------10-10-10-x-x-10--8-8-8/10/---------|
D-10-10-10x-x-10--1010-10-x-x-10--8-8-8/10/10-10----|
A-10-10-10x-x-10---8-8--8-x-x--8--6-6-6/-8/10-10----|
E-8-8--8-x-x--8-------------------------8--8----|

Guitar 2
e---------------------------------------------|
B---------------------------------------------|
G-5-5-5-x-x-5--5-5-5-x-x-5-3-3-3-------------|
D-5-5-5-x-x-5--33-3-x-x-3--1-1-1-----1-------|
A-3-3-3x-x-3--33-3-x-x-3--1-1-11/3---3-1---|
E--------------------------------------------|


Have fun!
Related for More tab