Guitaretab - guitar tabs
Song name
# A B C D E F G H I J K L M N O P Q R S T U V W X Y Z

Sisters Of Mercy - Alice tab

Riff 1:

e-------------------------------------|
B--8-0-0--7-0--5-0--3-5-5--2-5-5-2-0--|
G-------------------------------------|
D-------------------------------------|
A-------------------------------------|
E-------------------------------------|

Riff 2:

e----------------------------------------|
B--8-0-0--7-0-0--5-0--3-0-0--2-0-0--2-3--|
G----------------------------------------|
D----------------------------------------|
A----------------------------------------|
E----------------------------------------|


Riff 3:

e--8-0-0--7-0-0--5-0--3-0-0--5-0-0--7-0-0--|
B------------------------------------------|
G------------------------------------------|
D------------------------------------------|
A------------------------------------------|
E------------------------------------------|


Riff 4:

Guitar 1:
e----7----7-----7----7---|
B--5----5-----5----5-----|
G------------------------|
D------------------------|
A------------------------|
E------------------------|

Guitar 2:
e-7-7-7-7-7-7-7-7--|
B-7-7-7-7-7-7-7-7--|
G-9-8-9-8--9-8-9-8--|
D-9-9-9-9--9-9-9-9-|
A-7-9-7-9--7-9-7-9--|
E---7---7----7---7--|

[ Tab from: http://www.guitaretab.com/s/sisters-of-mercy/17337.html ]
Intro:
Riff 1
Riff 2 (x2)


(Riff 2)
She stays pressed against the wall
So she can see the door
(Riff 2)
In case the laughing strangers crawl and
Crush the petals on the floor
(Riff 3)
Alice in her party dress
She thanks you kindly
So serene
    (Riff 2)
She needs you like she needs her thanks
To tell her that the world is clean
   (Riff 4)
To promise her a definition
Tell her where the rain will fall
(Riff 2)
Tell her where the sun shines bright
And tell her she can have it all
(Riff 2)
Today
(Riff 2)
Today

Riff 3

Riff 2 (x2)

Riff 4

(Riff 2)
Pass the crystal spread the Tarot
In illusion comfort lies
(Riff 2)
The safest way the straight and narrow
No confusion no surprise
(Riff 3)
Alice in her party dressed
She thanks you kindly
Turns away
    (Riff 2)
She needs you like she needs her pills
To tell her that the world's okay
   (Riff 4)
To promise her a definition
Tell her where the rain will fall
(Riff 2)
Tell her where the sun shines bright
And tell her she can have it all
(Riff 2)
Today
(Riff 2)
Today

Riff 3

Riff 2 (x2)

Riff 4
Alice
Don't give it way!

Riff 2 (x2)

Riff 4
Alice
Don't give it way!
Related for Alice tab