Song name
# A B C D E F G H I J K L M N O P Q R S T U V W X Y Z

Sisters Of Mercy - Temple Of Love tab

Temple of love
By: Sisters of mercy

0:01

Solo guitar:

                                                     End One
|-------14-14----------------12-12-------|-----7-7-9-9-10-10-9-9-7-7-9-9-|
|-14-14-------14-14----12-12-------12-12-|-7-7---------------------------|
|----------------------------------------|-------------------------------|
|----------------------------------------|-------------------------------|
|----------------------------------------|-------------------------------|
|----------------------------------------|-------------------------------|
                                                     End Two
                                         |-----7-7-9-9-10-10-9-9-7-7-------|
                                         |-7-7-----------------------10-10-|

Base Guitar:


|---------------------------------------------------------------------|
|---------------------------------------------------------------------|
|---------------------------------------------------------------------|
|-2-2-2-2-2-2-2-2-5-5-5-5-5-5-5-5-7-7-7-7-7-7-7-7-7-7-9-9-10-10-12-12-|
|-0-0-0-0-0-0-0-0-3-3-3-3-3-3-3-3-5-5-5-5-5-5-5-5-5-5-7-7--8--8-10-10-|
|---------------------------------------------------------------------|

0:46

Strange riff (played with acoustic guitar):

                         End One
|---------------------|-----------|
|---------------------|-----------|
|-------2---------2---|-------7~~-|
|-----2---2-----2---2-|-----7-----|
|---0---------3-------|---5-------|
|-0---------0---------|-0---------|
                         End Two
                      |---------|
                      |---------|
                      |-----7~~-|
                      |---x-7~~-|
                      |-5---5~~-|
                      |---------|
1:09

Solo Guitar:

|-7-7-7-7-7-7-7-7-7-7-7-7-7-7-7-7-7-5-5-3-3-0-0-5-5-3-3-2-2-0-0-|
|-0-0-0-0-0-0-0-0-0-0-0-0-0-0-0---------------------------------|
|---------------------------------------------------------------|
|---------------------------------------------------------------|
|---------------------------------------------------------------|
|---------------------------------------------------------------|

Base Guitar:

|-----------------------------------------------------------------|
|-----------------------------------------------------------------|
|-----------------------------------------------------------------|
|-9-9-9-9-x-9-x-x-7/9-9-9-x-9-x-x-2-2-2-2-x-2-x-x-5-5-5-5-x-5-x-x-|
|-7-7-7-7-x-7-x-x-5/7-7-7-x-7-x-x-0-0-0-0-x-0-x-x-3-3-3-3-x-3-x-x-|
|-----------------------------------------------------------------|

1:32

Base Guitar:
                                             End One & Three
|-----------------------------------|-------------------------------|
|-----------------------------------|-------------------------------|
|-----------------------------------|-------------------------------|
|-2-x-x-2-x-x-2-x-5-x-x-5-x-x-5/7-7-|-x-x-x-x-x-x-x-x-7-x-x-7-x-7-x-|
|-0-x-x-0-x-x-0-x-3-x-x-3-x-x-3/5-5-|-x-x-x-x-x-x-x-x-5-x-x-5-x-5-x-|
|-----------------------------------|-------------------------------|
                                             End Two
                                    |-------------------------------|
                                    |-------------------------------|
                                    |-------------------------------|
                                    |-x-x-x-x-x-x-x-x-x-x-x-x-x-x-x-|
                                    |-x-x-x-x-x-x-x-x-x-x-x-x-x-x-x-|
                                    |-------------------------------|
                                              End Four
                                 |-----------------------------------------|
                                 |-----------------------------------------|
                                 |-----------------------------------------|
                                 |-x-x-x-x-x-x-7x-7x-9x-9x-10x-10x-12x-12x-|
                                 |-x-x-x-x-x-x-5x-5x-7x-7x--8x--8x-10x-10x-|
                                 |-----------------------------------------|

1:55

Solo guitar:

                                                     End One
|-------14-14----------------12-12-------|-----7-7-9-9-10-10-9-9-7-7-9-9-|
|-14-14-------14-14----12-12-------12-12-|-7-7---------------------------|
|----------------------------------------|-------------------------------|
|----------------------------------------|-------------------------------|
|----------------------------------------|-------------------------------|
|----------------------------------------|-------------------------------|
                                                     End Two
                                         |-----7-7-9-9-10-10-9-9-7-7-------|
                                         |-7-7-----------------------10-10-|

2:20

Solo Guitar:

|-7-7-7-7-7-7-7-7-7-7-7-7-7-7-7-7-7-5-5-3-3-0-0-5-5-3-3-2-2-0-0-|
|-0-0-0-0-0-0-0-0-0-0-0-0-0-0-0---------------------------------|
|---------------------------------------------------------------|
|---------------------------------------------------------------|
|---------------------------------------------------------------|
|---------------------------------------------------------------|

Base Guitar

|-----------------------------------------------------------------|
|-----------------------------------------------------------------|
|-----------------------------------------------------------------|
|-9-9-9-9-x-9-x-x-7/9-9-9-x-9-x-x-2-2-2-2-x-2-x-x-5-5-5-5-x-5-x-x-|
|-7-7-7-7-x-7-x-x-5/7-7-7-x-7-x-x-0-0-0-0-x-0-x-x-3-3-3-3-x-3-x-x-|
|-----------------------------------------------------------------|

2:43

Both Guitars:

|-------------------------------------------------------------------|
|-------------------------------------------------------------------|
|-------------------------------------------------------------------|
|-7---7-7-7-7-8-7-5---5-5-5-5-3-2-0---0-0-0-0---0-0-0-0-2-2-3-3-5-5-|
|-------------------------------------------------------------------|
|-------------------------------------------------------------------|

3:05

Solo guitar:

                                                     End One
|-------14-14----------------12-12-------|-----7-7-9-9-10-10-9-9-7-7-9-9-|
|-14-14-------14-14----12-12-------12-12-|-7-7---------------------------|
|----------------------------------------|-------------------------------|
|----------------------------------------|-------------------------------|
|----------------------------------------|-------------------------------|
|----------------------------------------|-------------------------------|
                                                     End Two
                                         |-----7-7-9-9-10-10-9-9-7-7-------|
                                         |-7-7-----------------------10-10-|

Base Guitar:
                                             End One & Three
|-----------------------------------|-------------------------------|
|-----------------------------------|-------------------------------|
|-----------------------------------|-------------------------------|
|-2-x-x-2-x-x-2-x-5-x-x-5-x-x-5/7-7-|-x-x-x-x-x-x-x-x-7-x-x-7-x-7-x-|
|-0-x-x-0-x-x-0-x-3-x-x-3-x-x-3/5-5-|-x-x-x-x-x-x-x-x-5-x-x-5-x-5-x-|
|-----------------------------------|-------------------------------|
                                             End Two
                                    |-------------------------------|
                                    |-------------------------------|
                                    |-------------------------------|
                                    |-x-x-x-x-x-x-x-x-x-x-x-x-x-x-x-|
                                    |-x-x-x-x-x-x-x-x-x-x-x-x-x-x-x-|
                                    |-------------------------------|
                                              End Four
                                 |-----------------------------------------|
                                 |-----------------------------------------|
                                 |-----------------------------------------|
                                 |-x-x-x-x-x-x-7x-7x-9x-9x-10x-10x-12x-12x-|
                                 |-x-x-x-x-x-x-5x-5x-7x-7x--8x--8x-10x-10x-|
                                 |-----------------------------------------|

3:29

Solo Guitar:

|-7-7-7-7-7-7-7-7-7-7-7-7-7-7-7-7-7-5-5-3-3-0-0-5-5-3-3-2-2-0-0-|
|-0-0-0-0-0-0-0-0-0-0-0-0-0-0-0---------------------------------|
|---------------------------------------------------------------|
|---------------------------------------------------------------|
|---------------------------------------------------------------|
|---------------------------------------------------------------|

Base Guitar:

|-----------------------------------------------------------------|
|-----------------------------------------------------------------|
|-----------------------------------------------------------------|
|-9-9-9-9-x-9-x-x-7/9-9-9-x-9-x-x-2-2-2-2-x-2-x-x-5-5-5-5-x-5-x-x-|
|-7-7-7-7-x-7-x-x-5/7-7-7-x-7-x-x-0-0-0-0-x-0-x-x-3-3-3-3-x-3-x-x-|
|-----------------------------------------------------------------|

3:52

|-----|
|-----|
|-----|
|-7~~-|
|-0~~-|
|-----|

(Drum Solo)

4:17

Both Guitars:

|---------------|
|---------------|
|---------------|
|-7~~-5~~-0~~---|
|-7~~-5~~-0~~---|
|---------------|

4:42

Solo Guitar:

|-------------------------------------------------------------------|
|-------------------------------------------------------------------|
|-------------------------------------------------------------------|
|-7---7-7-7-7-8-7-5---5-5-5-5-3-2-0---0-0-0-0---0-0-0-0-2-2-3-3-5-5-|
|-------------------------------------------------------------------|
|-------------------------------------------------------------------|

Base Guitar does the same at 4:17

5:03

Solo Guitar:

|-7-7-7-7-7-7-7-7-7-7-7-7-7-7-7-7-7-5-5-3-3-0-0-5-5-3-3-2-2-0-0-|
|-0-0-0-0-0-0-0-0-0-0-0-0-0-0-0---------------------------------|
|---------------------------------------------------------------|
|---------------------------------------------------------------|
|---------------------------------------------------------------|
|---------------------------------------------------------------|

Base Guitar:

|-----------------------------------------------------------------|
|-----------------------------------------------------------------|
|-----------------------------------------------------------------|
|-9-9-9-9-x-9-x-x-7/9-9-9-x-9-x-x-2-2-2-2-x-2-x-x-5-5-5-5-x-5-x-x-|
|-7-7-7-7-x-7-x-x-5/7-7-7-x-7-x-x-0-0-0-0-x-0-x-x-3-3-3-3-x-3-x-x-|
|-----------------------------------------------------------------|

5:27

(Bass Solo)

5:34

Solo Guitar plays softly:

|-------------------|
|-------------------|
|-9^~~--7^~~-2^~~---|
|-------------------|
|-------------------|
|-------------------|

Base guitar doesn't play anything

5:50

Solo guitar (with max distorction):

|-------------------------------------------------------------------|
|-------------------------------------------------------------------|
|-------------------------------------------------------------------|
|-7---7-7-7-7-8-7-5---5-5-5-5-3-2-0---0-0-0-0---0-0-0-0-2-2-3-3-5-5-|
|-------------------------------------------------------------------|
|-------------------------------------------------------------------|

Base Guitar:


|-----------------------------------|-------------------------------|
|-----------------------------------|-------------------------------|
|-----------------------------------|-------------------------------|
|-2-x-x-2-x-x-2-x-5-x-x-5-x-x-5/7-7-|-x-x-x-x-x-x-x-x-7-x-x-7-x-7-x-|
|-0-x-x-0-x-x-0-x-3-x-x-3-x-x-3/5-5-|-x-x-x-x-x-x-x-x-5-x-x-5-x-5-x-|
|-----------------------------------|-------------------------------|
                                             End Two
                                    |-------------------------------|
                                    |-------------------------------|
                                    |-------------------------------|
                                    |-x-x-x-x-x-x-x-x-x-x-x-x-x-x-x-|
                                    |-x-x-x-x-x-x-x-x-x-x-x-x-x-x-x-|
                                    |-------------------------------|
                                              End Four
                                 |-----------------------------------------|
                                 |-----------------------------------------|
                                 |-----------------------------------------|
                                 |-x-x-x-x-x-x-7x-7x-9x-9x-10x-10x-12x-12x-|
                                 |-x-x-x-x-x-x-5x-5x-7x-7x--8x--8x-10x-10x-|
                                 |-----------------------------------------|

6:13

Solo Guitar:

|-7-7-7-7-7-7-7-7-7-7-7-7-7-7-7-7-7-5-5-3-3-0-0-5-5-3-3-2-2-0-0-|
|-0-0-0-0-0-0-0-0-0-0-0-0-0-0-0---------------------------------|
|---------------------------------------------------------------|
|---------------------------------------------------------------|
|---------------------------------------------------------------|
|---------------------------------------------------------------|

Base Guitar:

|-----------------------------------------------------------------|
|-----------------------------------------------------------------|
|-----------------------------------------------------------------|
|-9-9-9-9-x-9-x-x-7/9-9-9-x-9-x-x-2-2-2-2-x-2-x-x-5-5-5-5-x-5-x-x-|
|-7-7-7-7-x-7-x-x-5/7-7-7-x-7-x-x-0-0-0-0-x-0-x-x-3-3-3-3-x-3-x-x-|
|-----------------------------------------------------------------|

6:37

Base Guitar:

|-----------------------------------|-------------------------------|
|-----------------------------------|-------------------------------|
|-----------------------------------|-------------------------------|
|-2-x-x-2-x-x-2-x-5-x-x-5-x-x-5/7-7-|-x-x-x-x-x-x-x-x-7-x-x-7-x-7-x-|
|-0-x-x-0-x-x-0-x-3-x-x-3-x-x-3/5-5-|-x-x-x-x-x-x-x-x-5-x-x-5-x-5-x-|
|-----------------------------------|-------------------------------|
                                             End Two
                                    |-------------------------------|
                                    |-------------------------------|
                                    |-------------------------------|
                                    |-x-x-x-x-x-x-x-x-x-x-x-x-x-x-x-|
                                    |-x-x-x-x-x-x-x-x-x-x-x-x-x-x-x-|
                                    |-------------------------------|
                                              End Four
                                 |-----------------------------------------|
                                 |-----------------------------------------|
                                 |-----------------------------------------|
                                 |-x-x-x-x-x-x-7x-7x-9x-9x-10x-10x-12x-12x-|
                                 |-x-x-x-x-x-x-5x-5x-7x-7x--8x--8x-10x-10x-|
                                 |-----------------------------------------|

Solo guitar: (only at 7:00)

|-------14-14----------------12-12-------|-----7-7-9-9-10-10-9-9-7-7-9-9-|
|-14-14-------14-14----12-12-------12-12-|-7-7---------------------------|
|----------------------------------------|-------------------------------|
|----------------------------------------|-------------------------------|
|----------------------------------------|-------------------------------|
|----------------------------------------|-------------------------------|
                                                     End Two
                                         |-----7-7-9-9-10-10-9-9-7-7-------|
                                         |-7-7-----------------------10-10-|

7:23

Solo Guitar:

|-7-7-7-7-7-7-7-7-7-7-7-7-7-7-7-7-7-5-5-3-3-0-0-5-5-3-3-2-2-0-0-|
|-0-0-0-0-0-0-0-0-0-0-0-0-0-0-0---------------------------------|
|---------------------------------------------------------------|
|---------------------------------------------------------------|
|---------------------------------------------------------------|
|---------------------------------------------------------------|

Base Guitar:

|-----------------------------------------------------------------|
|-----------------------------------------------------------------|
|-----------------------------------------------------------------|
|-9-9-9-9-x-9-x-x-7/9-9-9-x-9-x-x-2-2-2-2-x-2-x-x-5-5-5-5-x-5-x-x-|
|-7-7-7-7-x-7-x-x-5/7-7-7-x-7-x-x-0-0-0-0-x-0-x-x-3-3-3-3-x-3-x-x-|
|-----------------------------------------------------------------|

7:45

|-----|
|-----|
|-----|
|-7~~-|
|-0~~-|
|-----|

Enjoy, this is a hell of a song... lml




Tap to rate this tab
# A B C D E F G H I J K L M N O P Q R S T U V W X Y Z