Song name
# A B C D E F G H I J K L M N O P Q R S T U V W X Y Z

Sisters Of Mercy - Adrenochrome tab

Intro (guitar 1)

e|-----------------------------------------------------------------|
B|---------------------------------------------4-3-----------------|
G|-----------------------------5-4-3-3-3-3-3-3-----------------3-2-|  x3
D|-------------3-2-5-5-5-5-5-5---------------------3-3-3-3-3-3-----|
A|-3-3-3-3-3-3-----------------------------------------------------|
E|-----------------------------------------------------------------|

Chorus (guitar 2)

e|------------------------|
B|------------------------|
G|-5-7-8--8-88/7-7-77/5-5-|  
D|-5-7-8--8-88/7-7-77/5-5-| 
A|-3-5-6--6-66/5-5-55/3-3-|
E|------------------------|
                 ^
               (sounds a bit different but didn't find the right chord yet)

-guitar 1 is playing under chorus but its hard to hear
Tap to rate this tab
 
# A B C D E F G H I J K L M N O P Q R S T U V W X Y Z