Guitaretab - guitar tabs
Song name
# A B C D E F G H I J K L M N O P Q R S T U V W X Y Z

Sisters Of Mercy - We Are The Same Suzanne tab

This is one of the new Sistersí songs. It isnít yet released on record, but you can find
live in the showcase section of the official Sisters site (www.thesistersofmercy.com).


Riff I

Bass
  (A)       (C)      (G)     (B)
G|-----------------------------------------------|
D|-----------------------------------------------|
A|-00000000ó33333333----------22222222-----------|
Ň|-------------------33333333--------------------|

Guitar I
e|------------------------------------8-7~----------|
¬|----------------------------------8---------------|
G|--------------------------------------------------|
D|--------------------------------------------------|
A|--------------------------------------------------|
Ň|--------------------------------------------------|


Riff II
[ Tab from: http://www.guitaretab.com/s/sisters-of-mercy/71045.html ]
Guitar I (Iím not very sure about that)
e|-----------------------------------8-7~----------|
¬|---1-0-----3--1--0---------------8---------------|
G|-0------0--------------2-0-----------------------|
D|---------------------2-----2---------------------|
A|-------------------------------------------------|
Ň|-------------------------------------------------|

Guitar II
Chords (Distorted)
A  C  G  B


Chorus (Distorted):
D C Bb G A
D C Bb G Em


And now the verses and the way to play them:

(A)         (C)         (G)           (B)
counting the days in the haze around you
(A)     (C)     (G)     (B)
Susanne on the wall

Chorus:

D        C
no pain, summer rain
Bb       G            A
I'm lost for stupid again
D          C
we are the same
Bb       G          Em
give it a name Susanne

counting the days in the haze around you
Susanne let the ether fall
out of phase, I am all around you
Susanne on the wall

no pain, summer rain
I'm lost for stupid again
we are the same
give it a name Susanne
Related for We Are The Same Suzanne tab