Song name
# A B C D E F G H I J K L M N O P Q R S T U V W X Y Z

Siti Nurhaliza - Kau Ku Sayang chords

Highlighted       Show chord diagrams
Haven't heard this song played in a couple of years...
heard it now and straightaway took my guitar! 
First song I properly tabbed!! 
(got a few others but lazy to do it :P)

I suppose plucking's the best way to do it for this song. 
Feel free to comment and improve! 

Intro
       
e|---------4-3---------2-1-----------------------|
B|-----------------------------------------------|
G|-5-6-5-6-----3-5-3-5-----5-6-5---5-6-5---------|
D|-------------------------------6-------6-8-----|
A|-----------------------------------------------|
E|-----------------------------------------------|


    G#
Kau tersenyum
C#
Ku terpaku
C#m
Cahya di wajahmu
      G#
Hanyalah untukku
C#
Sinaran matamu
  D#	      D#m/G7(low string)
Menusuk di kalbu
Cm/F7	  C#
Tak mungkin ku melupakan
C#m/F#7	    G#
Sebegini pengalaman
Cm/F7	      C#
Lalu hati pun berkata
D#	    G#
Segala untukmu

Korus
C#	     D#
Satu masa nanti
D#m/G7	     Cm/F7
Pasti kau temui
C#	     D#
Tabahkanlah hati
       D#m/G7	     Cm/F7
Jangan lupakan Ilahi
C#	     D#
Akan tiba bahagia
       D#m/G7	     Cm/F7@G#
Tak mungkin sendirian
     C#	  C#m/F#7     G#   Cm/F7 
Terhurai dalam lagu berkumandang...
     C#	  C#m/F#7
Di buai dalam mimpi
     	C#   C#m/F#7     G#
Kau ku sayang..hmm

Tabs:
e|-4-----|--4-----|--4-----|--6-----|--6---8--|-3---5--|--4---6---|
B|-4-----|--4--6--|--4-5---|--6--8--|--6--7---|-3--4---|--4--5----|
G|-4-5---|--4--6--|--4--6--|--6--8--|--6---8--|-3---5--|--4---6---|
D|-4---6-|--4--6--|--4--6--|--6--8--|--6------|-3------|--4-------|
A|-4---6-|--4-----|--4-----|--6-----|--6------|-3------|--4-------|
E|-4-----|--4-----|--4-----|--6-----|--6------|-3------|--4-------|

   G#  	    C#        C#m       D#    D#m/G7   Cm/F7    C#m/F#7


tabbed by Azmir Jani (azmir.jani@gmail.com)
Tap to rate this tab
# A B C D E F G H I J K L M N O P Q R S T U V W X Y Z