Song name
# A B C D E F G H I J K L M N O P Q R S T U V W X Y Z

Siti Nurhaliza - Biarlah Rahsia tab

Solo:

        Fm            Bb         Eb            Cm
e|-------4--4-4--3-------|--------3--3-3----------|
B|---3-4-----------6-4-6-|-3-4-6----------6-4-3---|
G|-5---------------------|----------------------5-|
D|-----------------------|------------------------|
A|-----------------------|------------------------|
E|-----------------------|------------------------|

        Fm            G7         Cm
e|-----------------------|---4-3---------3--------|
B|---3-4-6--6-6--4-3-----|--------6-4-6-----------|
G|-5-----------------5-4-|-4----------------------|
D|-----------------------|------------------------|
A|-----------------------|------------------------|
E|-----------------------|------------------------|

    Cm
e|-----------------------|------------------------|
B|--3-4-6-4~8(mute)------|------------------------|
G|-----------------------|------------------------|
D|-----------------------|------------------------|
A|-----------------------|------------------------|
E|-----------------------|------------------------|

www.sitizone.com

Tap to rate this tab
# A B C D E F G H I J K L M N O P Q R S T U V W X Y Z