Song name
# A B C D E F G H I J K L M N O P Q R S T U V W X Y Z

Six Feet Under - Somewhere In The Darkness tab

.  - palm mute           /  - slide up to
\  - slide down to       ~  - vibrato
h  - hammer on           b  - Bend
p  - pull off            Suffixes for bend
t  - tap                 f  - full bend    h - half bend
ph - pinched harmonic    q  - quarter bend t - tap bend
*  - see comment         ^  - Hold bend    r release bend
x  - mute string         ~  - vibrato bend
,  - slight palm mute    () - ghost note, sustained note
"  - tremolo note        <> - Trill

Tuning C F A# D# G C

Intro/main riff
|----------------------------------------------|
|----------------------------------------------|
|---------9-9---------101010101010---------9-9-|
|-2-2-2-2-x-x-2-2-2-2-x-x-x-x-x-x--2-2-2-2-x-x-|
|-2-2-2-2-7-7-2-2-2-2-8-8-8-8-8-8--2-2-2-2-7-7-|
|-0-0-0-0-----0-0-0-0--------------0-0-0-0-----|
  . . . .     . . . .              . . . .
|------------------------|
|------------------------|
|---------1010-1212-1010-|
|-2-2-2-2-x-x--x-x--x-x--|
|-2-2-2-2-8-8--1010-8-8--|
|-0-0-0-0----------------|
  . . . .

This is the chorus-type-thing:
|-----------------------------------------------------------|
|-----------------------------------------------------------|
|-----------------------------------------------------------|
|-9-9/10-9-9-10-9-9-10--9--6-3-3-3-3-3--6-3-3-3-3-3-3-3-3---|
|-9-9/10-9-9-10-9-9-10--9--6-3-3-3-3-3--6-3-3-3-3-3-3-3-3---|
|-7-7/8--7-7-8--7-7-/8\-7--4\1-1-1-1-1--4\1-1-1-1-1-1-1-1---|
                               .   . .      .   . . . . .

This is the part played right before the solo:
*Note: I dont know if this is right...but it fits.
|-------------------------|
|-------------------------|
|-------------------------|
|-5/11--------------------|
|-3/9---9-10-9-10-9-7-5-2-|
|-3/9---7-8--7-8--7-5-3-0-|
        . .  . .  . . . .

Played underneath the solo:
|-------------------------------------------------------------------|
|-------------------------------------------------------------------|
|-------------------------------------------------------------------|
|-9---------10--------12---------14---------------------------------|
|-9---------10--------12---------14---------------------------------|
|-7---------8---------10---------12---------------------------------|

|--------------------------------------|
|--------------------------------------|
|--------------------------------------|
|-9---10--12---14---16---17---19---21--|
|-9---10--12---14---16---17---19---21--|
|-7---8---10---12---14---15---17---19--|

This is the very last riff:
|----------------------------------------------|
|----------------------------------------------|
|---------9-9---------101010101010---------9-9-|
|-2-2-2-2-x-x-2-2-2-2-x-x-x-x-x-x--2-2-2-2-x-x-|
|-2-2-2-2-7-7-2-2-2-2-8-8-8-8-8-8--2-2-2-2-7-7-|
|-0-0-0-0-----0-0-0-0--------------0-0-0-0-----|
  . . . .     . . . .              . . . .
|----------------------------|
|----------------------------|
|---------1010-1212-1010-9\0-|
|-2-2-2-2-x-x--x-x--x-x--9\0-|
|-2-2-2-2-8-8--1010-8-8--7\0-|
|-0-0-0-0--------------------|

The order of the song is very easy to identify...Have fun!
Tap to rate this tab
# A B C D E F G H I J K L M N O P Q R S T U V W X Y Z