Song name
# A B C D E F G H I J K L M N O P Q R S T U V W X Y Z

Six Feet Under - Zombie Executioner tab

tuning- standard C

C-|-------------|
G-|-------------|
Eb|-------------|
Bb|-------------|
F-|-------------|
C-|-------------|

pm-palm mute

intro
|-------------------------------------------------|
|-------------------------------------------------|
|-------------------------------------------------|
|-5-5-5-6-6-6-3-----------5-5-5-6-6-6-3-----------|
|-5-5-5-6-6-6-3-3-3-3-333-5-5-5-6-6-6-3-3-3-3-333-|
|-3-3-3-4-4-4-1-1-1-1-111-3-3-3-4-4-4-1-1-1-1-111-|
pm              - - - ---               - - - ---

|-------------------------------------------------|
|-------------------------------------------------|
|-------------------------------------------------|
|-5-5-5-6-6-6-3-----------5-5-5-6-6-6-3-----------|
|-5-5-5-6-6-6-3-3-3-3-333-5-5-5-6-6-6-3-3-3-3-333-|
|-3-3-3-4-4-4-1-1-1-1-111-3-3-3-4-4-4-1-1-1-1-111-|
pm              - - - ---               - - - ---

|-------------------------------------------------|
|-------------------------------------------------|
|-------4-4-4-3-----------------4-4-4-3-----------|
|-2-2-2-4-4-4-3-3-3-3-333-2-2-2-4-4-4-3-3-3-3-333-|
|-2-2-2-2-2-2-1-1-1-1-111-2-2-2-2-2-2-1-1-1-1-111-|
|-0-0-0-------------------0-0-0-------------------|
pm              - - - ---               - - - ---

|-------------------------------------------------|
|-------------------------------------------------|
|-------------------------------------------------|
|-5-5-5-6-6-6-3-----------5-5-5-6-6-6-3-----------|
|-5-5-5-6-6-6-3-3-3-3-333-5-5-5-6-6-6-3-3-3-3-333-|
|-3-3-3-4-4-4-1-1-1-1-111-3-3-3-4-4-4-1-1-1-1-111-|
pm              - - - ---               - - - ---

|-------------------------------------------------|
|-------------------------------------------------|
|-------4-4-4-3-----------------4-4-4-3-----------|
|-2-2-2-4-4-4-3-3-3-3-333-2-2-2-4-4-4-3-333-3-333-|
|-2-2-2-2-2-2-1-1-1-1-111-2-2-2-2-2-2-1-111-1-111-|
|-0-0-0-------------------0-0-0-------------------|
pm              - - - ---               --- - ---

verse
|-----------------------------------------------------------------|
|-----------------------------------------------------------------|
|-----------------------------------------------------------------|
|-----------------------------------------------------------------|
|-----------------------------------------------------------------|
|-0000000000000000111111114444333300000000000000001111111144443333
pm----------------------------------------------------------------

|-----------------------------------------------------------------|
|-----------------------------------------------------------------|
|-----------------------------------------------------------------|
|-----------------------------------------------------------------|
|-----------------------------------------------------------------|
|-0000000000000000111111114444333300000000000000001111111144443333
pm----------------------------------------------------------------

|-----------------------------------------------------------------|
|-----------------------------------------------------------------|
|-----------------------------------------------------------------|
|-----------------------------------------------------------------|
|-0000000000000000333300007777888800000000000000003333000077778888
|-----------------------------------------------------------------|
pm----------------------------------------------------------------|

|------------------------------------------------------------------|
|------------------------------------------------------------------|
|------------------------------------------------------------------|
|------------------------------------------------------------------|
|-------------------------66665555------------------------66665555-|
|-333333333333333366663333--------333333333333333366663333---------|
pm-----------------------------------------------------------------|

|-----------------------------------------------------------------|
|-----------------------------------------------------------------|
|-----------------------------------------------------------------|
|-----------------------------------------------------------------|
|-----------------------------------------------------------------|
|-0000000000000000111111114444333300000000000000001111111144443333
pm----------------------------------------------------------------

|-----------------------------------------------------------------|
|-----------------------------------------------------------------|
|-----------------------------------------------------------------|
|-----------------------------------------------------------------|
|-----------------------------------------------------------------|
|-0000000000000000111111114444333300000000000000001111111144443333
pm----------------------------------------------------------------

|-----------------------------------------------------------------|
|-----------------------------------------------------------------|
|-----------------------------------------------------------------|
|-----------------------------------------------------------------|
|-0000000000000000333300007777888800000000000000003333000077778888
|-----------------------------------------------------------------|
pm----------------------------------------------------------------|

|------------------------------------------------------------------|
|------------------------------------------------------------------|
|------------------------------------------------------------------|
|------------------------------------------------------------------|
|-------------------------66665555------------------------66665555-|
|-333333333333333366663333--------333333333333333366663333---------|
pm-----------------------------------------------------------------|

chorus
|-------------------------------------------------|
|-------------------------------------------------|
|-------------------------------------------------|
|-5-5-5-6-6-6-3-----------5-5-5-6-6-6-3-----------|
|-5-5-5-6-6-6-3-3-3-3-333-5-5-5-6-6-6-3-3-3-3-333-|
|-3-3-3-4-4-4-1-1-1-1-111-3-3-3-4-4-4-1-1-1-1-111-|
pm              - - - ---               - - - ---

|-------------------------------------------------|
|-------------------------------------------------|
|-------------------------------------------------|
|-5-5-5-6-6-6-3-----------5-5-5-6-6-6-3-----------|
|-5-5-5-6-6-6-3-3-3-3-333-5-5-5-6-6-6-3-3-3-3-333-|
|-3-3-3-4-4-4-1-1-1-1-111-3-3-3-4-4-4-1-1-1-1-111-|
pm              - - - ---               - - - ---

|-------------------------------------------------|
|-------------------------------------------------|
|-------4-4-4-3-----------------4-4-4-3-----------|
|-2-2-2-4-4-4-3-3-3-3-333-2-2-2-4-4-4-3-3-3-3-333-|
|-2-2-2-2-2-2-1-1-1-1-111-2-2-2-2-2-2-1-1-1-1-111-|
|-0-0-0-------------------0-0-0-------------------|
pm              - - - ---               - - - ---

|-------------------------------------------------|
|-------------------------------------------------|
|-------------------------------------------------|
|-5-5-5-6-6-6-3-----------5-5-5-6-6-6-3-----------|
|-5-5-5-6-6-6-3-3-3-3-333-5-5-5-6-6-6-3-3-3-3-333-|
|-3-3-3-4-4-4-1-1-1-1-111-3-3-3-4-4-4-1-1-1-1-111-|
pm              - - - ---               - - - ---

|-------------------------------------------------|
|-------------------------------------------------|
|-------4-4-4-3-----------------4-4-4-3-----------|
|-2-2-2-4-4-4-3-3-3-3-333-2-2-2-4-4-4-3-3-3-3-333-|
|-2-2-2-2-2-2-1-1-1-1-111-2-2-2-2-2-2-1-1-1-1-111-|
|-0-0-0-------------------0-0-0-------------------|
pm              - - - ---               - - - ---


bridge
|-------------------------------------------------|
|-------------------------------------------------|
|-------------------7-----------8-----7-----6-----|
|-------6-----------7-----------8-----7-----6-----|
|-------6-----------5-----0-000-6-0-0-5-0-0-4-0-0-|
|-3-333-4-3-3-3-333---3-3-------------------------|
pm- ---   - - - ---   - - - ---   - -   - -   - -
repeat this riff 5 more times

repeat verse again

outro
|-------------------------------------------------|
|-------------------------------------------------|
|-------------------------------------------------|
|-5-5-5-6-6-6-3-----------5-5-5-6-6-6-3-----------|
|-5-5-5-6-6-6-3-3-3-3-333-5-5-5-6-6-6-3-3-3-3-333-|
|-3-3-3-4-4-4-1-1-1-1-111-3-3-3-4-4-4-1-1-1-1-111-|
pm              - - - ---               - - - ---

|-------------------------------------------------|
|-------------------------------------------------|
|-------------------------------------------------|
|-5-5-5-6-6-6-3-----------5-5-5-6-6-6-3-----------|
|-5-5-5-6-6-6-3-3-3-3-333-5-5-5-6-6-6-3-3-3-3-333-|
|-3-3-3-4-4-4-1-1-1-1-111-3-3-3-4-4-4-1-1-1-1-111-|
pm              - - - ---               - - - ---

|-----
|-----
|-----
|-2---
|-2---
|-0---

end.
Tap to rate this tab
# A B C D E F G H I J K L M N O P Q R S T U V W X Y Z