Song name
# A B C D E F G H I J K L M N O P Q R S T U V W X Y Z

Six Feet Under - Revenge Of The Zombie tab

Revenge of the Zombie
           by Six Feet Under from the album"Warpath"

tab by Zack Demianczyk

Drop "D" tunning

main riff
|----------------------------------------------------|
|----------------------------------------------------|
|----------------------------------------------------|
|----------------------------------------------------|
|-5-5-5-5---5-6----5-5-5-5---5-3---------|
|----------------------------------------------------|
  .   .     .  .  .     .   .     .  .  .      .  .      .  .  .
|-------------------------------------------------------------------|
|-------------------------------------------------------------------|
|-------------------------------------------------------------------|
|-------------------------------------------------------------------|
|-------------------------------------------------------------------|
|-0--0----0-0-0----0--0----0-0-0----0--0----0-0-0----|

|------------------------------------|
|------------------------------------|
|------------------------------------|
|------------------------------------|
|--3--3----4--4----1------------|
|--3--3----4--4----1------------|

|----------------------------------------------------|
|----------------------------------------------------|
|----------------------------------------------------|
|----------------------------------------------------|
|-5-5-5-5---5-6----5-5-5-5---5-3---------|
|----------------------------------------------------|

pre-chorus
|---------------------------------|
|---------------------------------|
|---------------------------------|
|-------------8--8----7--------|
|---5--------6--6----5--------|
|---5----------------------------|

chorus
|----------------------------------------------------|
|----------------------------------------------------|
|----------------------------------------------------|
|----------------------------------------------------|
|-5-5-5-5---5-6----5-5-5-5---5-3---------|
|----------------------------------------------------|
  .   .     .  .  .     .   .     .  .  .      .  .      .  .  .
|-------------------------------------------------------------------|
|-------------------------------------------------------------------|
|-------------------------------------------------------------------|
|-------------------------------------------------------------------|
|-------------------------------------------------------------------|
|-0--0----0-0-0----0--0----0-0-0----0--0----0-0-0----|

|------------------------------------|
|------------------------------------|
|------------------------------------|
|------------------------------------|
|--3--3----4--4----1------------|
|--3--3----4--4----1------------|

pre-chorus
|---------------------------------|
|---------------------------------|
|---------------------------------|
|-------------8--8----7--------|
|---5--------6--6----5--------|
|---5----------------------------|

|----------------------------------------------------|
|----------------------------------------------------|
|----------------------------------------------------|
|----------------------------------------------------|
|-5-5-5-5---5-6----5-5-5-5---5-3---------|
|----------------------------------------------------|

Fill
|----------------------------------------------------|
|----------------------------------------------------|
|-7-7-7-7---78----7-7-7-7---7-5----------|
|----------------------------------------------------|
|----------------------------------------------------|
|----------------------------------------------------|

That song took my less than five minutes but its still a great song so 
there it is 

later 
ZACK DEMIANCZYK
Tap to rate this tab
# A B C D E F G H I J K L M N O P Q R S T U V W X Y Z