Song name
# A B C D E F G H I J K L M N O P Q R S T U V W X Y Z

Six Feet Under - Silent Violence tab

Silent Violence
By: Six Feet Under
Tabbed by Billy Denehy
Drop "D" Tuning

Fill 1
|-------------|
|-------------|
|-------------|
|-2--0--3--0--|
|-2--0--3--0--|
|-2--0--3--0--|

Riff 1
|----------------------------------|
|----------------------------------|
|----------------------------------|
|-0-0-0000-0-0-000-----------------|
|-0-0-0000-0-0-000-----------------|
|-0-0-0000-0-0-000-----------------|

Riff 2
|-----------------------------------------|
|-----------------------------------------|
|-----------------------------------------|
|-12-12-0000-11-11-0000-10-10-0000-9-10-11|
|-12-12-0000-11-11-0000-10-10-0000-9-10-11|
|-12-12-0000-11-11-0000-10-10-0000-9-10-11|

Riff 3
|-----------------------------------------|
|-----------------------------------------|
|-----------------------------------------|
|-0-0-2--00-0-2-4-3----0-0-2--00-0-4-3-2--|
|-0-0-2--00-0-2-4-3----0-0-2--00-0-4-3-2--|
|-0-0-2--00-0-2-4-3----0-0-2--00-0-4-3-2--|

Listen to the album for the rythym and order.  I believe these are all the
parts. Please e-mail corrections and comments to Pantera606@AOL.com.
Tap to rate this tab
# A B C D E F G H I J K L M N O P Q R S T U V W X Y Z