Guitaretab - guitar tabs
Song name
# A B C D E F G H I J K L M N O P Q R S T U V W X Y Z

Six Feet Under - Seed Of Filth tab

-------------------------------------------------------------------------------
			     Seed of Filth - Six Feet Under
-------------------------------------------------------------------------------
Tabbed by: DragTheWaters11
Email: taintedmisery911@aim.com


.  - palm mute           /  - slide up to
\  - slide down to       ~  - vibrato
h  - hammer on           b  - Bend
p  - pull off            Suffixes for bend
t  - tap                 f  - full bend    h - half bend
ph - pinched harmonic    q  - quarter bend t - tap bend
*  - see comment         ^  - Hold bend    r release bend
x  - Staccatto           ~  - vibrato bend
,  - slight palm mute    () - ghost note, sustained note
"  - tremolo note         <> - Trill
#  - strum notes lightly

R
E
S  -  Rest hand on strings
T

Tuning D 	Low [D | G | C | F | A | D] High


Intro
|--------------------------------------------------------------------------|
|--------------------------------------------------------------------------|
|--------------------------------------------------------------------------|
|--------------------------------------------------------------------------|
|--------------------------------------------------------------------------|
|0000--0000--0000--0000--0000--0000--0000--0000--0000--0000--0000--0000----|
 ....  ....  ....  ....  ....  ....  ....  ....  ....  ....  ....  ....


Verse
|---------------------------------------------------------------------------|
|---------------------------------------------------------------------------|
|---------------------------------------------------------------------------|
|------------------------------------------1--------------------------------|
|------------------------------------------1--------------------------------|
|3000--1000--3000--1000--3000--1000--3000--1--3000--1000--3000--1000--3000--|
 ....  ....  ....  ....  ....  ....  ....     ....  ....  ....  ....  ....

|------------------|
|------------------|
|------------------|
|-------------6----|
|-------------6----|
|-1000--3000--4----|
  ....  ....


Chorus [First part]
|------------------------------------------|
|------------------------------------------|
|--------R----------------R----------------|
|----8---E-7----------8---E-7--------------|
|----8---S-7-0-0-0----8---S-7-0-0-0-0-0-0--|
|*00-8---T-7-0-0-0----8---T-7-0-0-0-0-0-0--|
  ..         . . .            . . . . . .
[ Tab from: http://www.guitaretab.com/s/six-feet-under/189896.html ]
       [Second Part]
|---------------------------------------------|
|---------------------------------------------|
|-------R----------------R--------------------|
|---3---E-6--6-6-6---3---E-9--9-9-9-----------|
|---3---S-6--6-6-6---3---S-9--9-9-9-----------|
|---3---T-6--6-6-6---3---T-9--9-9-9-----------|
             # # #            # # #

* Only play when going from verse to the chorus

[For the REST during the song, you rest right before strumming the note that comes 
after the REST indicated in the tab.]

Outro* | Rhythm Under Solo
|-------------------------------------------------------|
|-------------------------------------------------------|
|-------------------------------------------------------|
|--------------------------1----------------------------|
|0-0-0--0-0-0--0-0-0-0-0-0-1----------------------------|
|0-0-0--0-0-0--0-0-0-0-0-0-1----------------------------|
 . . .  . . .  . . . . . .
|-------------------------------------------------------|
|-------------------------------------------------------|
|-------------------------------------------------------|
|--------------------------2----------------------------|
|0-0-0--0-0-0--0-0-0-0-0-0-2----------------------------|
|0-0-0--0-0-0--0-0-0-0-0-0-2----------------------------|
 . . .  . . .  . . . . . .
|-------------------------------------------------------|
|-------------------------------------------------------|
|-------------------------------------------------------|
|--------------------------4----------------------------|
|0-0-0--0-0-0--0-0-0-0-0-0-4----------------------------|
|0-0-0--0-0-0--0-0-0-0-0-0-4----------------------------|
 . . .  . . .  . . . . . .
|-------------------------------------------------------|
|-------------------------------------------------------|
|-------------------------------------------------------|
|--------------------------0----------------------------|
|0-0-0--0-0-0--0-0-0-0-0-0-0----------------------------|
|0-0-0--0-0-0--0-0-0-0-0-0-0----------------------------|
 . . .  . . .  . . . . . .

* Start fading out on the outro during the fifth time through

Intro x1
Verse x3
Chorus x2
Verse x3
Chorus x2
Solo [Riff under solo x4]
Chorus x2
Verse x3
Chorus x2
Outro x7

Sorry about not having the solo tabbed. Iím not good at tabbing soloís, theyíll just end 
in a mess. Maybe after a little more practice with tabbing soloís Iíll be able to tab 
solo correctly.

Have fun learning this song. It's not too difficult for beginners.. everyone is 
though so don't please don't hound me if you cannot. Any questions email me at 
taintedmisery911@aim.com
===============================================================================
Related for Seed Of Filth tab
Seed Of Filth chords by Six Feet Under