Song name
# A B C D E F G H I J K L M N O P Q R S T U V W X Y Z

Six Feet Under - Impulse To Disembowel tab

Six Feet Under
Impulse To Disembowel
CD:True Carnage


e:|-------------------|-------------------|-------------------|---------------| 
B:|-------------------|-------------------|-------------------|---------------| 
G:|-------------------|-------------------|-------------------|---------------| 
D:|-------------------|-------------------|-------------------|---------------| 
A:|-2-3-2-------------|-------------------|-2-3-2-------------|-10-9-4--------| 
E:|-0-1-0-------------|-------------------|-0-1-0-------------|--8-7-2--------|

e:|----------------|-----------------|----------------|---------------| 
B:|----------------|-----------------|----------------|---------------| 
G:|----------------|-----------------|----------------|---------------| 
D:|----------------|-----------------|----------------|------V--------| 
A:|-2-3-2----------|-2-3-2-----------|-2-3-2----------|-10-9-4--------| 
E:|-0-1-0----------|-0-1-0-----------|-0-1-0----------|--8-7-2--------|

 
e:|-------------------|-------------------|-------------------|---------------| 
B:|-------------------|-------------------|-------------------|---------------| 
G:|-------------------|-------------------|-------------------|---------------| 
D:|-------------------|-------------------|-------------------|---------------| 
A:|-------------------|-------------------|-------------------|-B-B-V---------| 
E:|-1-0-3-0-2-0-3-0---|-1-0-3-0-2-0-3-0---|-1-0-3-0-2-0-3-0---|-8-7-2---------|


e:|-------------------|-------------------|-------------------|---------------| 
B:|-------------------|-------------------|-------------------|---------------| 
G:|-------------------|-------------------|-------------------|---------------| 
D:|-------------------|-------------------|-------------------|---------------| 
A:|-3-----------------|-4-----------------|-3-----------------|-6------4------| 
E:|-1-----------------|-2-----------------|-1-----------------|-4------2------|


e:|-------------------|-------------------|-------------------|---------------| 
B:|-------------------|-------------------|-------------------|---------------| 
G:|-------------------|-------------------|-------------------|---------------| 
D:|-------------------|-9sl10-------------|----------10sl9----|--------------8| 
A:|-------------------|-7sl8--------------|-----------8sl7----|--------------6| 
E:|-0-0-0-0-0-0-0-0---|-------------------|-0-0-0-0-----------|-0-0-0-0-0-0-0-0--| 



e:|---------------------------------------------------------| 
B:|---------------------------------------------------------| 
G:|---------------------------------------------------------| 
D:|----------------------------------9---------------------------------------8---|
A:|---------------------------------7----------------------------------------6---| 
E:|-0-0-0-0-0-0-0-0-0-0-0-0--------0-0-0-0-0-0-0-0-0-0-0-0-------------|

e:|-------------------|--------------------| 
B:|-------------------|-------------------| 
G:|-------------------|-------------------| 
D:|-9-----------------|-3-----------------| 
A:|-7-----------------|-1-----------------| 
E:|-------------------|--------------------|

This is my first tab, so send any comments or suggestions to KlownPosseKing@aol.com
Tap to rate this tab
# A B C D E F G H I J K L M N O P Q R S T U V W X Y Z