Song name
# A B C D E F G H I J K L M N O P Q R S T U V W X Y Z

Six Feet Under - Doomsday tab

Doomsday - Six Feet Under

Tuning (low to high) C F A# D# G C

Riff 1
C  ---------------------------------------------------------------------------|
G  ---------------------------------------------------------------------------|
D# ---------------------------------------------------------------------------|
A# -7--7--8--9----------------------------------7--7--9--8--------------------|
F  -5--7--6--7----------------------------------5--7--7--6--------------------|
C  -5--5--6--7--8-8-8-8-8-8-8-8-8-8-8-8-8-8-8-8-5--5--7--6--6-6-6-6-6-6-6-6-6-|
                . . . . . . . . . . . . . . . .             . . . . . . . . .

C  ---------------||
G  ---------------||
D# ---------------||
A# ---------------||
F  ---------------||
C  -6-6-6-6-6-6-6-||
    . . . . . . .

Riff 2        3x
C  -------------|-------------||
G  -------------|-------------||
D# -------------|-------------||
A# -5------5--6-|-5------5--4-||
F  -3------5--4-|-3------5--4-||
C  -3------3--4-|-3------3--2-||

Riff 3
C  -----------------------------------------------------------------||
G  -----------------------------------------------------------------||
D# -----------------------------------------------------------------||
A# -----------------------------------------------------------------||
F  -----------------------------------------------------------------||
C  -6-6-6-6-6-6-6-6-5-5-5-5-5-5-5-5-3-3-3-3-3-3-3-3-2-2-2-2-2-2-2-2-||
    . . . . . . . . . . . . . . . . . . . . . . . . . . . . . . . .

Riff 4
C  -------------||
G  -------------||
D# -------------||
A# -------------||
F  -2-5-6-5-2-3-||
C  -0-3-4-3-0-1-||
Tap to rate this tab
# A B C D E F G H I J K L M N O P Q R S T U V W X Y Z