Song name
# A B C D E F G H I J K L M N O P Q R S T U V W X Y Z

Six Feet Under - Reckless tab

Six Feet Under - Reckless

Tuning: C Standard

|-----------------------------------------------------------|
|-----------------------------------------------------------|
|-----------------------------------------------------------|
|---------------------------------------------------8-7-5---|
|-7-------------------7-------7---------------4-5-7-------7-|
|---0-3-7-6-3-0-3-7-6---0-3-6---0-3-7-6-3-0-3---------------|

|-------------------------|
|-------------------------|
|-----8---6-----------4---|
|-7---8-5-6---------3-4---|
|-7---6-5-4---------3-2---|
|-5-0---3---0-0-0-0-1---0-|
    *       * * * *     *

|------------------------------------------------------|
|------------------------------------------------------|
|-----------------5---6---9-3---------------8---9---12-|
|-3-2-------------5---6---9-3-2-------------8---9---12-|
|-3-2-------------3---4---7-1-2-------------6---7---10-|
|-1-0-0-0-000-000---0---0-----0-0-0-000-000---0---0----|
      * * *** ***   *   *       * * *** ***
|------------------------------------|
|------------------------------------|
|---------------------8---8---8---8\-|
|-10---10---10---10---6---6---6---6\-|
|-8----8----8----8----6---6---6---6\-|
|-8--0-8--0-8--0-8--0---0---0---0----|
     *    *    *    *   *   *   *
Tap to rate this tab
# A B C D E F G H I J K L M N O P Q R S T U V W X Y Z