Song name
# A B C D E F G H I J K L M N O P Q R S T U V W X Y Z

Six Feet Under - Remains Of You tab

Remains of You 
By: Six Feet Under
Tabbed by Billy Denehy
Drop "D" Tuning

Riff 1a
|--------------------------------------------------|
|--------------------------------------------------|
|--------------------------------------------------|
|--0-0-0-0-5--0-0-3--0-0-7\6-----------------------|
|--0-0-0-0-5--0-0-3--0-0-7\6-----------------------|
|--0-0-0-0-5--0-0-3--0-0-7\6-----------------------|

Riff 1b
|--------------------------------------------------|
|--------------------------------------------------|
|--------------------------------------------------|
|--0-0-0-0-5--0-0-3--0-0-7\6/7---------------------|
|--0-0-0-0-5--0-0-3--0-0-7\6/7---------------------|
|--0-0-0-0-5--0-0-3--0-0-7\6/7---------------------|

Riff 2
|---------------------|
|---------------------|
|---------------------|
|-0---5---3---7-------|
|-0---5---3---7-------|
|-0---5---3---7-------|

Riff 3
|--------------------------------------------------|
|--------------------------------------------------|
|--------------------------------------------------|
|--0-0-5/6--0-0-3/4--0-0-5/6--0-0-10---------------|
|--0-0-5/6--0-0-3/4--0-0-5/6--0-0-10---------------|
|--0-0-5/6--0-0-3/4--0-0-5/6--0-0-10---------------|

The 10 in riff 3 is a ten, not a 1,0.

Listen to the album for the rythym and order.  I believe these are all the
parts. Please e-mail corrections and comments to Pantera606@AOL.com.
Tap to rate this tab
# A B C D E F G H I J K L M N O P Q R S T U V W X Y Z