Song name
# A B C D E F G H I J K L M N O P Q R S T U V W X Y Z

Six Feet Under - Journey Into Darkness tab

I'm not sure how right this is, but its better than nothing.
		    Journey Into Darkness by 6 Feet Under from Warpath
	DropD		
intro...			i'm not sure about this, but...
|-------------|   	|----------------|
|-------------|		|----------------|
|-------------|		|-12^-11^-10^-9^-|
|-1-1-4-1-1-4-|     	|----------------|
|-1-1-4-1-1-4-|		|----------------|
|-1-1-4-1-1-4-|		|----------------|

then	      	     "break free..."
|--------------|  |-------------|
|--------------|  |-------------|
|--------------|  |-------------|
|-1111-4-1-1-4-|  |-1-1-x-x-1-1-|
|-1111-4-1-1-4-|  |-1-1-x-x-1-1-|
|-1111-4-1-1-4-|  |-1-1-x-x-1-1-|         

"or else life is ruined..."
|---------------------------------|
|---------------------------------|
|---------------------------------|
|-1-x-x-x-4-x-x-x-1-x-x-x-3-x-x-x-|
|-1-x-x-x-4-x-x-x-1-x-x-x-3-x-x-x-|
|-1-x-x-x-4-x-x-x-1-x-x-x-3-x-x-x-|

Tabbed by Jeff Peters 
right now, I am working on Burning Blood by 6FU
Tap to rate this tab
# A B C D E F G H I J K L M N O P Q R S T U V W X Y Z