Song name
# A B C D E F G H I J K L M N O P Q R S T U V W X Y Z

Six Feet Under - This Graveyard Earth tab

                                 Six Feet Under:
                              This Graveyard Earth
                        (from the Maximum Violence album) 

 I think you`ll find the song very easy to play - like most of the SFU songs. 
But it will fascinate you! 

Riff 1:
-----------------------------------------------------------------------------
-----------------------------------------------------------------------------
-----------------------------------------------------------------------------
-----------------------------------------------------------------------------
----------7-------------------------7------6------5--------------------------
--0-0-0-0-5--0-0-0-0-5-4-3--0-0-0-0-5--0-0-4--0-0-3--------------------------

Fill 1:
-----------------------------------------------------------------------------
-----------------------------------------------------------------------------
-----------------------------------------------------------------------------
-----------------------------------------------------------------------------
-7-6-5-----------------------------------------------------------------------
-5-4-3----------------------------------------------------------------------- 

Riff 2:
-----------------------------------------------------------------------------
-----------------------------------------------------------------------------
-----------------------------------------------------------------------------
-----------------------------------------------------------------------------
-----------------------------------------------------------------------------
--0-0-0-0-6-5--0-0-0-0-6-5-6-5-6-5--0-0-0-0-6-5--0-0-0-0-6-5-6-5-6-----------

Play Riff 1 under the first and second verse
Play Fill 1 when the song appears to " This graveyard earth" and "We are all cursed"
After "We are all cursed" play Riff 2 a couple of times
Than play Riff 1 again a under the last verse(s)

I think that`s it. Enjoy!

Basil
Tap to rate this tab
# A B C D E F G H I J K L M N O P Q R S T U V W X Y Z