Song name
# A B C D E F G H I J K L M N O P Q R S T U V W X Y Z

Six Feet Under - Day The Dead Walked tab

uning = D# (1/2 step down)

Riff 1

|------------------------------------------|
|------------------------------------------|
|------------------------------------------|
|------------------------------------------|
|-----------88888888-7777------6666--------|
|--66666666---------------8888------7777---|


Riff 2 (a)

|----------------------------------------------------|
|----------------------------------------------------|
|----------------------------------------------------|
|----------------------------------------------------|
|-------9999-10101010---------------9999------8888---|
|--8888---------------10101010-9999------8888--------|


Riff 2 (b)

|----------------------------------------------------|
|----------------------------------------------------|
|----------------------------------------------------|
|----------------------------------------------------|
|-------9999-10101010---------------9999-------------|
|--8888---------------10101010-9999------99999999----|


Riff 3 (a)

|--------------------|
|--------------------|
|--------------------|
|--------------------|
|--4-6-5-8-7-4-8-9---|
|--2-4-3-6-5-2-6-7---|


Riff 3 (b)

|--------------------|
|--------------------|
|--------------------|
|--------------------|
|--4-6-5-8-7-4-5-2---|
|--2-4-3-6-5-2-3-0---|


Riff 3 (c)

|--------------------|
|--------------------|
|--------------------|
|--------------------|
|--4-8-7-4-6-5-4-5---|
|--2-6-5-2-4-3-2-3---|


Riff 4

|---------------------------------------------|
|---------------------------------------------|
|---------------------------------------------|
|---------------------------------------------|
|---------------------------------------4-3---|
|--3-2-0-2-1-0-3-2-0-2-1-0-3-2-0-2-1-0--2-1---|


Riff 5

|-------------------|
|-------------------|
|-------------------|
|-------------------|
|--6----6/7--7--4---|
|--4----4/5--5--2---|
Tap to rate this tab
 
# A B C D E F G H I J K L M N O P Q R S T U V W X Y Z