Song name
# A B C D E F G H I J K L M N O P Q R S T U V W X Y Z

Six Feet Under - Braindead tab

Band:  (SIX FEET UNDER)
Album: (BRINGER OF BLO0D)
Song:  (BRAINDEAD)

Copyright (c)  (METAL BLADE) (2003)
Version 1.0

Transcribed By: (BestialWarrior)
Email:          (Bestialson2003@yahoo.com)


.  - palm mute           /  - slide up to
\  - slide down to       ~  - vibrato
h  - hammer on           b  - Bend
p  - pull off            Suffixes for bend
t  - tap                 f  - full bend    h - half bend
ph - pinched harmonic    q  - quarter bend t - tap bend
*  - see comment         ^  - Hold bend    r release bend
x  - Stuccatto           ~  - vibrato bend
,  - slight palm mute    () - ghost note, sustained note
"  - tremolo note        <> - Trill

Tunning: TUNE TWO AND A HALF STEPS DOWN= C.
Riff #1.
|-----------------------------|
|-----------------------------|
|-----------------------------|
|--------4-3---------4-3------|
|2-5-4-2-2-1-2-5-4-2-2-1-2-5-3|
|0-3-2-0-----0-3-2-0-----0-3-1|
 . . . .     . . . .     . .
Riff#2. Slow.
|---------------------------|
|---------------------------|
|---------------------------|
|--------------6-----6------|
|2-------5--------5-----3333|
|0-------3-----4--3--4--1111|
                        ....
Riff #3. Slow.
|----------------------------|
|----------------------------|
|----------------------------|
|----------------------------|
|2----------------------3333-|
|0----------------------1111-|
                        ....
Riff #4.  :same as three, except space between chords is twice as long(roughly).
Arrangement:
Riff #1(8 times)
Riff #2(2 times)
Riff #1(4 times)
Riff #2(4 times)
Riff #3(4 times)
Riff #4(2 times)
Riff #1(6 times)
Riff #2(4 times)
Riff #3(2 times)
Riff #4(end riff, play till fades,(about 6 times roughly).
End....
Tap to rate this tab
# A B C D E F G H I J K L M N O P Q R S T U V W X Y Z