Song name
# A B C D E F G H I J K L M N O P Q R S T U V W X Y Z

Six Feet Under - Waiting For Decay tab

Six Feet Under - Waiting For Decay
Album: True Carnage

08-08-2002, Thomas Klopf

.  ... (light) palm mute (Listen to the song to hear what is used)
"  ... tremolo picking

Tuning: D G C F A D (1 step down)

Riff A
|--------------------|
|--------------------|
|--------------------|
|--------------------|
|-7"-6"--2-3-5-7-6-7-|
|--------0-1-3-5-4-5-|
         . . . . . .

Riff B
|--------------------|
|--------------------|
|--------------------|
|--------------------|
|-2-3-4-5-2-5--------|
|-0-1-2-3-4-3--3"-2"-|
  . . . . . .

Riff C and D
|-------------||-------------|
|-------------||-------------|
|-------------||-------------|
|-------------||-------------|
|-------------||-------------|
|-3"-2"-5"-2"-||-5"-4"-7"-4"-|

Riff E
|--------------------------|
|--------------------------|
|--------------------------|
|--------------------------|
|-5-4-3-4-3-2--------------|
|-3-2-1-2-1-0--1-111-0-000-|
  . . . . . .  . ... . ...

Solo backing rythm
|------------|
|------------|
|------------|
|------------|
|-2--5--4--3-|
|-0--3--2--1-|
Tap to rate this tab
 
# A B C D E F G H I J K L M N O P Q R S T U V W X Y Z